  0
SECTION
  2
HEADER
  9
$EXTMIN
 10
0
 20
0
  9
$EXTMAX
 10
297
 20
210
  0
ENDSEC
  0
SECTION
  2
TABLES
  0
TABLE
  2
LTYPE
 70
     9
  0
LTYPE
  2
CONTINUOUS
 70
    64
  3
実線
 72
    65
 73
     0
 40
0.0
  0
LTYPE
  2
DASHED1
 70
    64
  3
--  --  --  --  --  --  --  --  
 72
    65
 73
     2
 40
2.5
 49
1.25
 49
-1.25
  0
LTYPE
  2
DASHED2
 70
    64
  3
----    ----    ----    ----    
 72
    65
 73
     2
 40
5.0
 49
2.5
 49
-2.5
  0
LTYPE
  2
DASHED3
 70
    64
  3
------  ------  ------  ------  
 72
    65
 73
     2
 40
5.0
 49
3.75
 49
-1.25
  0
LTYPE
  2
CENTER1
 70
    64
  3
----- - ----- - ----- - ----- - 
 72
    65
 73
     4
 40
10.0
 49
6.25
 49
-1.25
 49
1.25
 49
-1.25
  0
LTYPE
  2
CENTER2
 70
    64
  3
----------  --  ----------  --  
 72
    65
 73
     4
 40
20.0
 49
12.5
 49
-2.5
 49
2.5
 49
-2.5
  0
LTYPE
  2
PHANTOM1
 70
    64
  3
--- - - --- - - --- - - --- - - 
 72
    65
 73
     6
 40
10.0
 49
3.25
 49
-1.25
 49
1.25
 49
-1.25
 49
1.25
 49
-1.25
  0
LTYPE
  2
PHANTOM2
 70
    64
  3
--------  -  -  --------  -  -  
 72
    65
 73
     6
 40
20.0
 49
10.0
 49
-2.5
 49
1.25
 49
-2.5
 49
1.25
 49
-2.5
  0
LTYPE
  2
DOT
 70
    64
  3
-   -   -   -   -   -   -   -   
 72
    65
 73
     2
 40
2.5
 49
0.625
 49
-1.875
  0
ENDTAB
  0
TABLE
  2
STYLE
 70
    1
  0
STYLE
  2
STANDARD
 70
    64
 40
0.0
 41
1.0
 42
0.0
 50
0.0
 71
     0
  3
TXT
  4
BIGFONT
  0
ENDTAB
  0
TABLE
  2
LAYER
 70
    7
  0
LAYER
  2
17DEG_15
 70
   64
 62
    7
  6
CONTINUOUS
  0
LAYER
  2
MID_CYLI
 70
   64
 62
    7
  6
CONTINUOUS
  0
LAYER
  2
C
 70
   64
 62
    7
  6
CONTINUOUS
  0
LAYER
  2
CATH_TER
 70
   64
 62
    7
  6
CONTINUOUS
  0
LAYER
  2
INNER_SH
 70
   64
 62
    7
  6
CONTINUOUS
  0
LAYER
  2
SHIELD_P
 70
   64
 62
    7
  6
CONTINUOUS
  0
LAYER
  2
ADD_LINE
 70
   64
 62
    7
  6
CONTINUOUS
  0
ENDTAB
  0
ENDSEC
  0
SECTION
  2
ENTITIES
  0
LINE
  8
CATH_TER
  6
CONTINUOUS
 62
    7
 10
216.2224
 20
175.3909
 11
216.2224
 21
177.89091
  0
LINE
  8
CATH_TER
  6
CENTER1
 62
    7
 10
213.72241
 20
181.98453
 11
213.72241
 21
172.8108
  0
LINE
  8
CATH_TER
  6
CONTINUOUS
 62
    7
 10
63.876912
 20
177.89091
 11
216.2224
 21
177.89091
  0
LINE
  8
CATH_TER
  6
CONTINUOUS
 62
    7
 10
63.876912
 20
177.89091
 11
61.670911
 21
181.71181
  0
LINE
  8
CATH_TER
  6
CONTINUOUS
 62
    7
 10
55.722407
 20
178.27745
 11
61.670911
 21
181.71181
  0
LINE
  8
CATH_TER
  6
CONTINUOUS
 62
    7
 10
55.722407
 20
175.3909
 11
55.722407
 21
178.27745
  0
LINE
  8
CATH_TER
  6
CENTER1
 62
    7
 10
94.280157
 20
180.18748
 11
73.565933
 21
168.22809
  0
LINE
  8
CATH_TER
  6
CONTINUOUS
 62
    7
 10
88.637344
 20
175.77488
 11
92.302411
 21
177.89091
  0
LINE
  8
CATH_TER
  6
CONTINUOUS
 62
    7
 10
82.508177
 20
175.3909
 11
84.37421
 21
172.15886
  0
LINE
  8
CATH_TER
  6
CONTINUOUS
 62
    7
 10
84.37421
 20
172.15886
 11
89.972283
 21
175.3909
  0
LINE
  8
CATH_TER
  6
CONTINUOUS
 62
    7
 10
83.074205
 20
174.41051
 11
87.837357
 21
177.16053
  0
LINE
  8
CATH_TER
  6
CONTINUOUS
 62
    7
 10
83.674204
 20
173.3713
 11
88.437347
 21
176.12128
  0
LINE
  8
CATH_TER
  6
CONTINUOUS
 62
    7
 10
55.722407
 20
175.3909
 11
82.508177
 21
175.3909
  0
LINE
  8
CATH_TER
  6
CENTER1
 62
    7
 10
174.53014
 20
180.18748
 11
153.81592
 21
168.22809
  0
LINE
  8
CATH_TER
  6
CONTINUOUS
 62
    7
 10
162.75817
 20
175.3909
 11
164.6242
 21
172.15886
  0
LINE
  8
CATH_TER
  6
CONTINUOUS
 62
    7
 10
164.6242
 20
172.15886
 11
170.22229
 21
175.3909
  0
LINE
  8
CATH_TER
  6
CONTINUOUS
 62
    7
 10
163.3242
 20
174.41051
 11
168.08734
 21
177.16053
  0
LINE
  8
CATH_TER
  6
CONTINUOUS
 62
    7
 10
163.92419
 20
173.3713
 11
168.68733
 21
176.12128
  0
LINE
  8
CATH_TER
  6
CONTINUOUS
 62
    7
 10
170.22229
 20
175.3909
 11
216.2224
 21
175.3909
  0
LINE
  8
ADD_LINE
  6
DOT
 62
    7
 10
55.722407
 20
175.3909
 11
55.722407
 21
145.6332
  0
LINE
  8
CATH_TER
  6
CONTINUOUS
 62
    7
 10
55.722407
 20
153.37355
 11
55.722407
 21
148.37356
  0
LINE
  8
ADD_LINE
  6
DOT
 62
    7
 10
216.2224
 20
175.3909
 11
216.2224
 21
146.77992
  0
LINE
  8
CATH_TER
  6
CONTINUOUS
 62
    7
 10
168.88735
 20
175.77488
 11
172.5524
 21
177.89091
  0
LINE
  8
ADD_LINE
  6
DOT
 62
    7
 10
170.55241
 20
146.38808
 11
170.55241
 21
185.71136
  0
LINE
  8
ADD_LINE
  6
DOT
 62
    7
 10
63.876912
 20
177.89091
 11
63.876912
 21
145.71855
  0
LINE
  8
ADD_LINE
  6
DOT
 62
    7
 10
88.137352
 20
176.64091
 11
88.137352
 21
145.40463
  0
LINE
  8
ADD_LINE
  6
DOT
 62
    7
 10
88.637344
 20
175.77488
 11
88.637344
 21
146.6603
  0
LINE
  8
CATH_TER
  6
CONTINUOUS
 62
    7
 10
61.670911
 20
153.37355
 11
61.670911
 21
148.37356
  0
LINE
  8
CATH_TER
  6
CONTINUOUS
 62
    7
 10
63.876912
 20
153.37355
 11
63.876912
 21
148.37356
  0
LINE
  8
CATH_TER
  6
CONTINUOUS
 62
    7
 10
59.447841
 20
179.56229
 11
60.197838
 21
178.26326
  0
LINE
  8
CATH_TER
  6
CONTINUOUS
 62
    7
 10
62.045914
 20
181.06229
 11
59.447841
 21
179.56229
  0
LINE
  8
CATH_TER
  6
CONTINUOUS
 62
    7
 10
62.095913
 20
180.97569
 11
59.49784
 21
179.4757
  0
LINE
  8
CATH_TER
  6
CONTINUOUS
 62
    7
 10
62.745911
 20
179.84986
 11
60.147834
 21
178.34985
  0
LINE
  8
CATH_TER
  6
CONTINUOUS
 62
    7
 10
62.795915
 20
179.76325
 11
60.197838
 21
178.26326
  0
LINE
  8
CATH_TER
  6
CENTER1
 62
    7
 10
65.880196
 20
182.41002
 11
58.484541
 21
178.14011
  0
LINE
  8
CATH_TER
  6
CONTINUOUS
 62
    7
 10
59.447841
 20
178.69627
 11
60.197838
 21
178.26326
  0
LINE
  8
CATH_TER
  6
CONTINUOUS
 62
    7
 10
59.447841
 20
179.56229
 11
59.447841
 21
178.69627
  0
LINE
  8
CATH_TER
  6
CENTER1
 62
    7
 10
62.420916
 20
152.13463
 11
62.420916
 21
149.60582
  0
LINE
  8
CATH_TER
  6
CONTINUOUS
 62
    7
 10
216.2224
 20
153.37355
 11
216.2224
 21
148.37356
  0
LINE
  8
CATH_TER
  6
CONTINUOUS
 62
    7
 10
55.722407
 20
153.37355
 11
216.2224
 21
153.37355
  0
LINE
  8
CATH_TER
  6
CONTINUOUS
 62
    7
 10
55.722407
 20
148.37356
 11
216.2224
 21
148.37356
  0
LINE
  8
CATH_TER
  6
CENTER1
 62
    7
 10
213.72241
 20
152.35416
 11
213.72241
 21
149.44084
  0
LINE
  8
CATH_TER
  6
CENTER1
 62
    7
 10
212.21431
 20
150.87355
 11
215.08552
 21
150.87355
  0
LINE
  8
CATH_TER
  6
CENTER1
 62
    7
 10
81.991694
 20
152.81455
 11
92.74278
 21
152.81455
  0
LINE
  8
CATH_TER
  6
CENTER1
 62
    7
 10
81.991694
 20
148.93255
 11
92.74278
 21
148.93255
  0
LINE
  8
CATH_TER
  6
CENTER1
 62
    7
 10
160.4949
 20
152.80404
 11
174.28875
 21
152.80404
  0
LINE
  8
CATH_TER
  6
CENTER1
 62
    7
 10
160.4949
 20
148.94305
 11
174.28875
 21
148.94305
  0
LINE
  8
CATH_TER
  6
CONTINUOUS
 62
    7
 10
87.63736
 20
177.50693
 11
88.302406
 21
177.89091
  0
LINE
  8
CATH_TER
  6
CONTINUOUS
 62
    7
 10
87.637342
 20
177.50693
 11
88.637344
 21
175.77488
  0
LINE
  8
ADD_LINE
  6
DOT
 62
    7
 10
87.415666
 20
177.89091
 11
87.415666
 21
146.50334
  0
LINE
  8
ADD_LINE
  6
DOT
 62
    7
 10
90.302409
 20
143.01102
 11
90.302409
 21
185.71136
  0
LINE
  8
CATH_TER
  6
CONTINUOUS
 62
    7
 10
89.972283
 20
175.3909
 11
162.75817
 21
175.3909
  0
LINE
  8
17DEG_15
  6
DASHED1
 62
    7
 10
10.937076
 20
125.3274
 11
285.57607
 21
125.3274
  0
LINE
  8
17DEG_15
  6
CONTINUOUS
 62
    7
 10
46.719079
 20
78.658275
 11
42.307077
 21
86.300076
  0
LINE
  8
17DEG_15
  6
CONTINUOUS
 62
    7
 10
30.410068
 20
79.431351
 11
42.307077
 21
86.300076
  0
LINE
  8
17DEG_15
  6
CONTINUOUS
 62
    7
 10
30.410068
 20
73.65825
 11
30.410068
 21
79.431351
  0
LINE
  8
17DEG_15
  6
CENTER1
 62
    7
 10
107.52556
 20
83.251376
 11
66.097121
 21
59.332637
  0
LINE
  8
17DEG_15
  6
CONTINUOUS
 62
    7
 10
96.239942
 20
74.426217
 11
103.57007
 21
78.658275
  0
LINE
  8
17DEG_15
  6
CONTINUOUS
 62
    7
 10
83.98161
 20
73.65825
 11
87.713675
 21
67.194173
  0
LINE
  8
17DEG_15
  6
CONTINUOUS
 62
    7
 10
87.713675
 20
67.194173
 11
98.90982
 21
73.65825
  0
LINE
  8
17DEG_15
  6
CONTINUOUS
 62
    7
 10
85.113665
 20
71.697477
 11
94.63995
 21
77.197511
  0
LINE
  8
17DEG_15
  6
CONTINUOUS
 62
    7
 10
86.313663
 20
69.619055
 11
95.839948
 21
75.119014
  0
LINE
  8
17DEG_15
  6
CONTINUOUS
 62
    7
 10
30.410068
 20
73.65825
 11
83.98161
 21
73.65825
  0
LINE
  8
ADD_LINE
  6
DOT
 62
    7
 10
30.410068
 20
73.65825
 11
30.410068
 21
14.142851
  0
LINE
  8
17DEG_15
  6
CONTINUOUS
 62
    7
 10
30.410068
 20
29.623548
 11
30.410068
 21
19.623567
  0
LINE
  8
ADD_LINE
  6
DOT
 62
    7
 10
46.719079
 20
78.658275
 11
46.719079
 21
14.313557
  0
LINE
  8
ADD_LINE
  6
DOT
 62
    7
 10
95.239958
 20
76.158271
 11
95.239958
 21
13.68571
  0
LINE
  8
ADD_LINE
  6
DOT
 62
    7
 10
96.239942
 20
74.426217
 11
96.239942
 21
16.197043
  0
LINE
  8
17DEG_15
  6
CONTINUOUS
 62
    7
 10
42.307077
 20
29.623548
 11
42.307077
 21
19.623567
  0
LINE
  8
17DEG_15
  6
CONTINUOUS
 62
    7
 10
46.719079
 20
29.623548
 11
46.719079
 21
19.623567
  0
LINE
  8
17DEG_15
  6
CONTINUOUS
 62
    7
 10
37.860928
 20
82.001038
 11
39.36093
 21
79.40297
  0
LINE
  8
17DEG_15
  6
CONTINUOUS
 62
    7
 10
43.057087
 20
85.001024
 11
37.860928
 21
82.001038
  0
LINE
  8
17DEG_15
  6
CONTINUOUS
 62
    7
 10
43.157085
 20
84.827834
 11
37.960926
 21
81.827847
  0
LINE
  8
17DEG_15
  6
CONTINUOUS
 62
    7
 10
44.457077
 20
82.576182
 11
39.260923
 21
79.57616
  0
LINE
  8
17DEG_15
  6
CONTINUOUS
 62
    7
 10
44.557084
 20
82.402956
 11
39.36093
 21
79.40297
  0
LINE
  8
17DEG_15
  6
CENTER1
 62
    7
 10
50.725637
 20
87.696449
 11
35.934327
 21
79.156674
  0
LINE
  8
17DEG_15
  6
CONTINUOUS
 62
    7
 10
37.860928
 20
80.268957
 11
39.36093
 21
79.40297
  0
LINE
  8
17DEG_15
  6
CONTINUOUS
 62
    7
 10
37.860928
 20
82.001038
 11
37.860928
 21
80.268992
  0
LINE
  8
17DEG_15
  6
CENTER1
 62
    7
 10
43.807079
 20
27.14572
 11
43.807079
 21
22.088094
  0
LINE
  8
17DEG_15
  6
CENTER1
 62
    7
 10
65.703151
 20
24.623556
 11
122.5374
 21
24.623556
  0
LINE
  8
17DEG_15
  6
CENTER1
 62
    7
 10
82.948652
 20
28.505559
 11
104.45082
 21
28.505559
  0
LINE
  8
17DEG_15
  6
CENTER1
 62
    7
 10
82.948652
 20
20.741554
 11
104.45082
 21
20.741554
  0
LINE
  8
17DEG_15
  6
CENTER1
 62
    7
 10
87.243727
 20
90.008118
 11
104.18438
 21
60.666054
  0
LINE
  8
17DEG_15
  6
CONTINUOUS
 62
    7
 10
89.406894
 20
86.646947
 11
93.962236
 21
89.276966
  0
LINE
  8
17DEG_15
  6
CONTINUOUS
 62
    4
 10
89.406894
 20
86.646947
 11
90.114004
 21
87.354057
  0
LINE
  8
17DEG_15
  6
CONTINUOUS
 62
    4
 10
89.406894
 20
86.646947
 11
90.372819
 21
86.905771
  0
LINE
  8
17DEG_15
  6
CENTER1
 62
    7
 10
83.568248
 20
109.35065
 11
116.33358
 21
109.35065
  0
LINE
  8
17DEG_15
  6
CENTER1
 62
    7
 10
97.520254
 20
120.2536
 11
97.520254
 21
101.06492
  0
LINE
  8
17DEG_15
  6
CONTINUOUS
 62
    7
 10
101.52024
 20
114.35065
 11
101.52024
 21
104.35066
  0
LINE
  8
17DEG_15
  6
CENTER1
 62
    7
 10
95.078491
 20
113.23266
 11
99.652328
 21
113.23266
  0
LINE
  8
17DEG_15
  6
CENTER1
 62
    7
 10
95.078491
 20
105.46865
 11
99.652328
 21
105.46865
  0
LINE
  8
17DEG_15
  6
CONTINUOUS
 62
    7
 10
94.633249
 20
114.35065
 11
94.633249
 21
104.35066
  0
LINE
  8
17DEG_15
  6
CONTINUOUS
 62
    7
 10
99.520239
 20
114.33601
 11
99.534902
 21
114.35065
  0
LINE
  8
17DEG_15
  6
CONTINUOUS
 62
    7
 10
94.633249
 20
104.35066
 11
96.961155
 21
104.35066
  0
LINE
  8
17DEG_15
  6
CONTINUOUS
 62
    7
 10
98.079361
 20
104.35066
 11
101.52024
 21
104.35066
  0
LINE
  8
17DEG_15
  6
CONTINUOUS
 62
    7
 10
94.633249
 20
114.35065
 11
96.96119
 21
114.35065
  0
LINE
  8
17DEG_15
  6
CONTINUOUS
 62
    7
 10
98.079317
 20
114.35065
 11
101.52024
 21
114.35065
  0
LINE
  8
17DEG_15
  6
CONTINUOUS
 62
    7
 10
94.239957
 20
77.890308
 11
95.570066
 21
78.658275
  0
LINE
  8
17DEG_15
  6
CONTINUOUS
 62
    7
 10
94.239939
 20
77.890308
 11
96.239942
 21
74.426217
  0
LINE
  8
17DEG_15
  6
CONTINUOUS
 62
    7
 10
100.84861
 20
104.35066
 11
101.52024
 21
105.02229
  0
LINE
  8
17DEG_15
  6
CONTINUOUS
 62
    7
 10
99.434396
 20
104.35066
 11
101.52024
 21
106.43651
  0
LINE
  8
17DEG_15
  6
CONTINUOUS
 62
    7
 10
99.489198
 20
105.81969
 11
101.52024
 21
107.85073
  0
LINE
  8
17DEG_15
  6
CONTINUOUS
 62
    7
 10
99.032653
 20
106.77733
 11
101.52024
 21
109.26495
  0
LINE
  8
17DEG_15
  6
CONTINUOUS
 62
    7
 10
95.19177
 20
104.35066
 11
95.636854
 21
104.79577
  0
LINE
  8
17DEG_15
  6
CONTINUOUS
 62
    7
 10
98.193156
 20
107.35205
 11
101.52024
 21
110.67917
  0
LINE
  8
17DEG_15
  6
CONTINUOUS
 62
    7
 10
94.633249
 20
105.20636
 11
95.680896
 21
106.25401
  0
LINE
  8
17DEG_15
  6
CONTINUOUS
 62
    7
 10
96.734912
 20
107.30804
 11
101.52024
 21
112.09336
  0
LINE
  8
17DEG_15
  6
CONTINUOUS
 62
    7
 10
94.633249
 20
106.62058
 11
101.52024
 21
113.50758
  0
LINE
  8
17DEG_15
  6
CONTINUOUS
 62
    7
 10
94.633249
 20
108.0348
 11
97.860213
 21
111.26177
  0
LINE
  8
17DEG_15
  6
CONTINUOUS
 62
    7
 10
99.491158
 20
112.89267
 11
100.94912
 21
114.35065
  0
LINE
  8
17DEG_15
  6
CONTINUOUS
 62
    7
 10
94.633249
 20
109.44902
 11
96.627302
 21
111.44304
  0
LINE
  8
17DEG_15
  6
CONTINUOUS
 62
    7
 10
99.309848
 20
114.12562
 11
99.534902
 21
114.35065
  0
LINE
  8
17DEG_15
  6
CONTINUOUS
 62
    7
 10
94.633249
 20
110.86325
 11
95.871129
 21
112.10109
  0
LINE
  8
17DEG_15
  6
CONTINUOUS
 62
    7
 10
94.633249
 20
112.27744
 11
95.521388
 21
113.16558
  0
LINE
  8
17DEG_15
  6
CONTINUOUS
 62
    7
 10
94.633249
 20
113.69166
 11
95.292241
 21
114.35065
  0
LINE
  8
ADD_LINE
  6
DOT
 62
    7
 10
93.796569
 20
78.658275
 11
93.796569
 21
15.88312
  0
LINE
  8
ADD_LINE
  6
DOT
 62
    7
 10
99.570072
 20
8.8984915
 11
99.570072
 21
94.299177
  0
LINE
  8
CATH_TER
  6
CONTINUOUS
 62
    7
 10
167.88735
 20
177.50695
 11
168.88735
 21
175.77488
  0
LINE
  8
CATH_TER
  6
CONTINUOUS
 62
    7
 10
167.88735
 20
177.50695
 11
168.55241
 21
177.89091
  0
LINE
  8
17DEG_15
  6
CENTER1
 62
    7
 10
95.236808
 20
30.716778
 11
95.236808
 21
26.86842
  0
LINE
  8
17DEG_15
  6
CENTER1
 62
    7
 10
95.135541
 20
22.41242
 11
95.135541
 21
18.665332
  0
LINE
  8
CATH_TER
  6
CONTINUOUS
 62
    4
 10
55.722407
 20
194.36872
 11
63.876912
 21
194.36872
  0
LINE
  8
CATH_TER
  6
CONTINUOUS
 62
    4
 10
55.722407
 20
177.89091
 11
55.722407
 21
195.06873
  0
LINE
  8
CATH_TER
  6
CONTINUOUS
 62
    4
 10
63.876912
 20
177.89091
 11
63.876912
 21
195.06873
  0
LINE
  8
CATH_TER
  6
CONTINUOUS
 62
    4
 10
55.722407
 20
194.36872
 11
56.688332
 21
194.62754
  0
LINE
  8
CATH_TER
  6
CONTINUOUS
 62
    4
 10
55.722407
 20
194.36872
 11
56.688332
 21
194.1099
  0
LINE
  8
CATH_TER
  6
CONTINUOUS
 62
    4
 10
63.876912
 20
194.36872
 11
62.910992
 21
194.62754
  0
LINE
  8
CATH_TER
  6
CONTINUOUS
 62
    4
 10
63.876912
 20
194.36872
 11
62.910992
 21
194.1099
  0
LINE
  8
CATH_TER
  6
CONTINUOUS
 62
    4
 10
63.876912
 20
194.36872
 11
90.302409
 21
194.36872
  0
LINE
  8
CATH_TER
  6
CONTINUOUS
 62
    4
 10
90.302409
 20
177.89091
 11
90.302409
 21
195.06873
  0
LINE
  8
CATH_TER
  6
CONTINUOUS
 62
    4
 10
63.876912
 20
194.36872
 11
64.842842
 21
194.62754
  0
LINE
  8
CATH_TER
  6
CONTINUOUS
 62
    4
 10
63.876912
 20
194.36872
 11
64.842842
 21
194.1099
  0
LINE
  8
CATH_TER
  6
CONTINUOUS
 62
    4
 10
90.302409
 20
194.36872
 11
89.336484
 21
194.62754
  0
LINE
  8
CATH_TER
  6
CONTINUOUS
 62
    4
 10
90.302409
 20
194.36872
 11
89.336484
 21
194.1099
  0
LINE
  8
CATH_TER
  6
CONTINUOUS
 62
    4
 10
90.302409
 20
194.36872
 11
170.55241
 21
194.36872
  0
LINE
  8
CATH_TER
  6
CONTINUOUS
 62
    4
 10
170.55241
 20
177.89091
 11
170.55241
 21
195.06873
  0
LINE
  8
CATH_TER
  6
CONTINUOUS
 62
    4
 10
90.302409
 20
194.36872
 11
91.268342
 21
194.62754
  0
LINE
  8
CATH_TER
  6
CONTINUOUS
 62
    4
 10
90.302409
 20
194.36872
 11
91.268342
 21
194.1099
  0
LINE
  8
CATH_TER
  6
CONTINUOUS
 62
    4
 10
170.55241
 20
194.36872
 11
169.58648
 21
194.62754
  0
LINE
  8
CATH_TER
  6
CONTINUOUS
 62
    4
 10
170.55241
 20
194.36872
 11
169.58648
 21
194.1099
  0
LINE
  8
CATH_TER
  6
CONTINUOUS
 62
    4
 10
170.55241
 20
194.36872
 11
216.2224
 21
194.36872
  0
LINE
  8
CATH_TER
  6
CONTINUOUS
 62
    4
 10
216.2224
 20
177.89091
 11
216.2224
 21
195.06873
  0
LINE
  8
CATH_TER
  6
CONTINUOUS
 62
    4
 10
170.55241
 20
194.36872
 11
171.51835
 21
194.62754
  0
LINE
  8
CATH_TER
  6
CONTINUOUS
 62
    4
 10
170.55241
 20
194.36872
 11
171.51835
 21
194.1099
  0
LINE
  8
CATH_TER
  6
CONTINUOUS
 62
    4
 10
216.2224
 20
194.36872
 11
215.25648
 21
194.62754
  0
LINE
  8
CATH_TER
  6
CONTINUOUS
 62
    4
 10
216.2224
 20
194.36872
 11
215.25648
 21
194.1099
  0
LINE
  8
CATH_TER
  6
CONTINUOUS
 62
    4
 10
216.2224
 20
177.89091
 11
216.2224
 21
188.1898
  0
LINE
  8
CATH_TER
  6
CONTINUOUS
 62
    4
 10
213.72239
 20
177.89091
 11
213.72239
 21
188.1898
  0
LINE
  8
CATH_TER
  6
CONTINUOUS
 62
    4
 10
216.2224
 20
187.48979
 11
217.18833
 21
187.74862
  0
LINE
  8
CATH_TER
  6
CONTINUOUS
 62
    4
 10
216.2224
 20
187.48979
 11
217.18833
 21
187.23097
  0
LINE
  8
CATH_TER
  6
CONTINUOUS
 62
    4
 10
213.72239
 20
187.48979
 11
212.75646
 21
187.23097
  0
LINE
  8
CATH_TER
  6
CONTINUOUS
 62
    4
 10
213.72239
 20
187.48979
 11
212.75646
 21
187.74862
  0
LINE
  8
CATH_TER
  6
CONTINUOUS
 62
    4
 10
220.73876
 20
187.48979
 11
211.28063
 21
187.48979
  0
LINE
  8
CATH_TER
  6
CONTINUOUS
 62
    4
 10
213.72241
 20
175.3909
 11
219.6196
 21
165.17666
  0
LINE
  8
CATH_TER
  6
CONTINUOUS
 62
    4
 10
213.72241
 20
175.3909
 11
214.42953
 21
174.68379
  0
LINE
  8
CATH_TER
  6
CONTINUOUS
 62
    4
 10
213.72241
 20
175.3909
 11
213.98123
 21
174.42497
  0
LINE
  8
C
  6
CONTINUOUS
 62
    7
 10
0
 20
210.99613
 11
0
 21
0
  0
LINE
  8
C
  6
CONTINUOUS
 62
    7
 10
0
 20
0
 11
296.99999
 21
0
  0
LINE
  8
C
  6
CONTINUOUS
 62
    7
 10
296.99999
 20
0
 11
296.99999
 21
210.99613
  0
LINE
  8
C
  6
CONTINUOUS
 62
    7
 10
296.99999
 20
210.99613
 11
0
 21
210.99613
  0
LINE
  8
CATH_TER
  6
CONTINUOUS
 62
    4
 10
219.6196
 20
165.17666
 11
233.65902
 21
165.17666
  0
LINE
  8
CATH_TER
  6
CONTINUOUS
 62
    7
 10
63.020911
 20
179.37355
 11
61.288866
 21
178.37355
  0
LINE
  8
CATH_TER
  6
CONTINUOUS
 62
    7
 10
61.288866
 20
178.37355
 11
61.838866
 21
177.42093
  0
LINE
  8
CATH_TER
  6
CONTINUOUS
 62
    7
 10
63.570911
 20
178.42091
 11
61.838866
 21
177.42093
  0
LINE
  8
CATH_TER
  6
CONTINUOUS
 62
    7
 10
61.838866
 20
177.42093
 11
61.202454
 21
177.68857
  0
LINE
  8
CATH_TER
  6
CONTINUOUS
 62
    7
 10
61.288866
 20
178.37355
 11
61.202454
 21
177.68857
  0
LINE
  8
17DEG_15
  6
CENTER1
 62
    7
 10
52.47564
 20
84.665361
 11
37.68433
 21
76.125586
  0
LINE
  8
17DEG_15
  6
CONTINUOUS
 62
    7
 10
45.007073
 20
81.623546
 11
41.542977
 21
79.623543
  0
LINE
  8
17DEG_15
  6
CONTINUOUS
 62
    7
 10
42.642977
 20
77.71829
 11
41.542977
 21
79.623543
  0
LINE
  8
17DEG_15
  6
CONTINUOUS
 62
    7
 10
46.107077
 20
79.718293
 11
42.642977
 21
77.71829
  0
LINE
  8
17DEG_15
  6
CONTINUOUS
 62
    7
 10
42.642977
 20
77.71829
 11
41.283939
 21
78.20382
  0
LINE
  8
17DEG_15
  6
CONTINUOUS
 62
    7
 10
41.542977
 20
79.623543
 11
41.283939
 21
78.20382
  0
LINE
  8
17DEG_15
  6
CENTER1
 62
    7
 10
45.557077
 20
27.14572
 11
45.557077
 21
22.088094
  0
LINE
  8
17DEG_15
  6
CENTER1
 62
    7
 10
42.45871
 20
24.623556
 11
46.51749
 21
24.623556
  0
LINE
  8
CATH_TER
  6
CONTINUOUS
 62
    4
 10
37.196669
 20
148.37356
 11
37.196669
 21
153.37355
  0
LINE
  8
CATH_TER
  6
CONTINUOUS
 62
    4
 10
55.722407
 20
148.37356
 11
36.496672
 21
148.37356
  0
LINE
  8
CATH_TER
  6
CONTINUOUS
 62
    4
 10
55.722407
 20
153.37355
 11
36.496672
 21
153.37355
  0
LINE
  8
CATH_TER
  6
CONTINUOUS
 62
    4
 10
37.196669
 20
148.37356
 11
36.93785
 21
149.33949
  0
LINE
  8
CATH_TER
  6
CONTINUOUS
 62
    4
 10
37.196669
 20
148.37356
 11
37.455488
 21
149.33949
  0
LINE
  8
CATH_TER
  6
CONTINUOUS
 62
    4
 10
37.196669
 20
153.37355
 11
36.93785
 21
152.40761
  0
LINE
  8
CATH_TER
  6
CONTINUOUS
 62
    4
 10
37.196669
 20
153.37355
 11
37.455488
 21
152.40761
  0
LINE
  8
CATH_TER
  6
CONTINUOUS
 62
    4
 10
55.722407
 20
163.48694
 11
82.508177
 21
163.48694
  0
LINE
  8
CATH_TER
  6
CONTINUOUS
 62
    4
 10
55.722407
 20
175.3909
 11
55.722407
 21
162.78694
  0
LINE
  8
CATH_TER
  6
CONTINUOUS
 62
    4
 10
82.508177
 20
175.3909
 11
82.508177
 21
162.78694
  0
LINE
  8
CATH_TER
  6
CONTINUOUS
 62
    4
 10
55.722407
 20
163.48694
 11
56.688332
 21
163.74577
  0
LINE
  8
CATH_TER
  6
CONTINUOUS
 62
    4
 10
55.722407
 20
163.48694
 11
56.688332
 21
163.22812
  0
LINE
  8
CATH_TER
  6
CONTINUOUS
 62
    4
 10
82.508177
 20
163.48694
 11
81.542253
 21
163.74577
  0
LINE
  8
CATH_TER
  6
CONTINUOUS
 62
    4
 10
82.508177
 20
163.48694
 11
81.542253
 21
163.22812
  0
LINE
  8
CATH_TER
  6
CONTINUOUS
 62
    4
 10
82.508177
 20
163.48694
 11
89.972283
 21
163.48694
  0
LINE
  8
CATH_TER
  6
CONTINUOUS
 62
    4
 10
89.972283
 20
175.3909
 11
89.972283
 21
162.78694
  0
LINE
  8
CATH_TER
  6
CONTINUOUS
 62
    4
 10
82.508177
 20
163.48694
 11
83.474102
 21
163.74577
  0
LINE
  8
CATH_TER
  6
CONTINUOUS
 62
    4
 10
82.508177
 20
163.48694
 11
83.474102
 21
163.22812
  0
LINE
  8
CATH_TER
  6
CONTINUOUS
 62
    4
 10
89.972283
 20
163.48694
 11
89.006358
 21
163.74577
  0
LINE
  8
CATH_TER
  6
CONTINUOUS
 62
    4
 10
89.972283
 20
163.48694
 11
89.006358
 21
163.22812
  0
LINE
  8
CATH_TER
  6
CONTINUOUS
 62
    4
 10
89.972283
 20
163.48694
 11
162.75817
 21
163.48694
  0
LINE
  8
CATH_TER
  6
CONTINUOUS
 62
    4
 10
162.75817
 20
175.3909
 11
162.75817
 21
162.78694
  0
LINE
  8
CATH_TER
  6
CONTINUOUS
 62
    4
 10
89.972283
 20
163.48694
 11
90.938208
 21
163.74577
  0
LINE
  8
CATH_TER
  6
CONTINUOUS
 62
    4
 10
89.972283
 20
163.48694
 11
90.938208
 21
163.22812
  0
LINE
  8
CATH_TER
  6
CONTINUOUS
 62
    4
 10
162.75817
 20
163.48694
 11
161.79224
 21
163.74577
  0
LINE
  8
CATH_TER
  6
CONTINUOUS
 62
    4
 10
162.75817
 20
163.48694
 11
161.79224
 21
163.22812
  0
LINE
  8
CATH_TER
  6
CONTINUOUS
 62
    4
 10
162.75817
 20
163.48694
 11
170.22229
 21
163.48694
  0
LINE
  8
CATH_TER
  6
CONTINUOUS
 62
    4
 10
162.75817
 20
175.3909
 11
162.75817
 21
162.78694
  0
LINE
  8
CATH_TER
  6
CONTINUOUS
 62
    4
 10
170.22229
 20
175.3909
 11
170.22229
 21
162.78694
  0
LINE
  8
CATH_TER
  6
CONTINUOUS
 62
    4
 10
162.75817
 20
163.48694
 11
163.72411
 21
163.74577
  0
LINE
  8
CATH_TER
  6
CONTINUOUS
 62
    4
 10
162.75817
 20
163.48694
 11
163.72411
 21
163.22812
  0
LINE
  8
CATH_TER
  6
CONTINUOUS
 62
    4
 10
170.22229
 20
163.48694
 11
169.25635
 21
163.74577
  0
LINE
  8
CATH_TER
  6
CONTINUOUS
 62
    4
 10
170.22229
 20
163.48694
 11
169.25635
 21
163.22812
  0
LINE
  8
CATH_TER
  6
CONTINUOUS
 62
    4
 10
170.22229
 20
163.48694
 11
216.2224
 21
163.48694
  0
LINE
  8
CATH_TER
  6
CONTINUOUS
 62
    4
 10
216.2224
 20
175.3909
 11
216.2224
 21
162.78694
  0
LINE
  8
CATH_TER
  6
CONTINUOUS
 62
    4
 10
170.22229
 20
163.48694
 11
171.18822
 21
163.74577
  0
LINE
  8
CATH_TER
  6
CONTINUOUS
 62
    4
 10
170.22229
 20
163.48694
 11
171.18822
 21
163.22812
  0
LINE
  8
CATH_TER
  6
CONTINUOUS
 62
    4
 10
216.2224
 20
163.48694
 11
215.25648
 21
163.74577
  0
LINE
  8
CATH_TER
  6
CONTINUOUS
 62
    4
 10
216.2224
 20
163.48694
 11
215.25648
 21
163.22812
  0
LINE
  8
CATH_TER
  6
CENTER1
 62
    7
 10
63.295911
 20
152.13463
 11
63.295911
 21
149.60582
  0
LINE
  8
CATH_TER
  6
CENTER1
 62
    7
 10
61.746732
 20
150.87355
 11
63.741105
 21
150.87355
  0
LINE
  8
17DEG_15
  6
CONTINUOUS
 62
    4
 10
71.843494
 20
78.658275
 11
71.584679
 21
79.6242
  0
LINE
  8
17DEG_15
  6
CONTINUOUS
 62
    4
 10
71.843494
 20
78.658275
 11
72.102313
 21
79.6242
  0
LINE
  8
17DEG_15
  6
CONTINUOUS
 62
    4
 10
34.156861
 20
100.41664
 11
34.863966
 21
101.12375
  0
LINE
  8
17DEG_15
  6
CONTINUOUS
 62
    4
 10
34.156861
 20
100.41664
 11
35.122785
 21
100.67546
  0
LINE
  8
17DEG_15
  6
CONTINUOUS
 62
    4
 10
55.543075
 20
78.658275
 11
72.5435
 21
78.658275
  0
LINE
  8
17DEG_15
  6
CONTINUOUS
 62
    4
 10
42.307077
 20
86.300076
 11
33.80686
 21
101.02286
  0
LINE
  8
17DEG_15
  6
CONTINUOUS
 62
    4
 10
50.275618
 20
90.900728
 11
53.525618
 21
85.271562
  0
LINE
  8
17DEG_15
  6
CONTINUOUS
 62
    4
 10
42.307072
 20
86.300085
 11
50.881838
 21
91.250731
  0
LINE
  8
17DEG_15
  6
CONTINUOUS
 62
    4
 10
45.557072
 20
80.670919
 11
54.131838
 21
85.621566
  0
LINE
  8
17DEG_15
  6
CONTINUOUS
 62
    4
 10
50.275618
 20
90.900728
 11
50.982728
 21
90.193618
  0
LINE
  8
17DEG_15
  6
CONTINUOUS
 62
    4
 10
50.275618
 20
90.900728
 11
50.534437
 21
89.934803
  0
LINE
  8
17DEG_15
  6
CONTINUOUS
 62
    4
 10
53.525618
 20
85.271562
 11
53.266799
 21
86.237496
  0
LINE
  8
17DEG_15
  6
CONTINUOUS
 62
    4
 10
53.525618
 20
85.271562
 11
52.818512
 21
85.978673
  0
LINE
  8
17DEG_15
  6
CONTINUOUS
 62
    4
 10
56.876137
 20
94.711568
 11
61.288157
 21
87.069731
  0
LINE
  8
17DEG_15
  6
CONTINUOUS
 62
    4
 10
42.307046
 20
86.300102
 11
57.482357
 21
95.061571
  0
LINE
  8
17DEG_15
  6
CONTINUOUS
 62
    4
 10
46.719062
 20
78.658257
 11
61.894372
 21
87.419734
  0
LINE
  8
17DEG_15
  6
CONTINUOUS
 62
    4
 10
56.876137
 20
94.711568
 11
57.583239
 21
94.004457
  0
LINE
  8
17DEG_15
  6
CONTINUOUS
 62
    4
 10
56.876137
 20
94.711568
 11
57.134956
 21
93.745643
  0
LINE
  8
17DEG_15
  6
CONTINUOUS
 62
    4
 10
61.288157
 20
87.069731
 11
61.029338
 21
88.035656
  0
LINE
  8
17DEG_15
  6
CONTINUOUS
 62
    4
 10
61.288157
 20
87.069731
 11
60.581051
 21
87.776841
  0
LINE
  8
ADD_LINE
  6
DOT
 62
    7
 10
83.98161
 20
73.65825
 11
98.90982
 21
73.65825
  0
LINE
  8
17DEG_15
  6
CONTINUOUS
 62
    4
 10
66.699574
 20
73.65825
 11
66.958389
 21
72.69233
  0
LINE
  8
17DEG_15
  6
CONTINUOUS
 62
    4
 10
66.699574
 20
73.65825
 11
66.440755
 21
72.69233
  0
LINE
  8
17DEG_15
  6
CONTINUOUS
 62
    4
 10
69.943127
 20
61.553131
 11
69.236025
 21
62.260232
  0
LINE
  8
17DEG_15
  6
CONTINUOUS
 62
    4
 10
69.943127
 20
61.553131
 11
69.684312
 21
62.519051
  0
LINE
  8
17DEG_15
  6
CONTINUOUS
 62
    4
 10
66.447527
 20
73.65825
 11
67.399572
 21
73.65825
  0
LINE
  8
17DEG_15
  6
CONTINUOUS
 62
    4
 10
69.724849
 20
61.427109
 11
70.549346
 21
61.903134
  0
LINE
  8
17DEG_15
  6
CONTINUOUS
 62
    4
 10
82.11227
 20
63.960205
 11
80.112276
 21
67.424305
  0
LINE
  8
17DEG_15
  6
CONTINUOUS
 62
    4
 10
87.713675
 20
67.194173
 11
81.50605
 21
63.610202
  0
LINE
  8
17DEG_15
  6
CONTINUOUS
 62
    4
 10
85.713673
 20
70.658273
 11
79.506056
 21
67.074302
  0
LINE
  8
17DEG_15
  6
CONTINUOUS
 62
    4
 10
82.11227
 20
63.960205
 11
81.405159
 21
64.667306
  0
LINE
  8
17DEG_15
  6
CONTINUOUS
 62
    4
 10
82.11227
 20
63.960205
 11
81.853446
 21
64.926125
  0
LINE
  8
17DEG_15
  6
CONTINUOUS
 62
    4
 10
80.112276
 20
67.424305
 11
80.371099
 21
66.458375
  0
LINE
  8
17DEG_15
  6
CONTINUOUS
 62
    4
 10
80.112276
 20
67.424305
 11
80.819386
 21
66.717199
  0
LINE
  8
17DEG_15
  6
CONTINUOUS
 62
    4
 10
43.807079
 20
83.701964
 11
48.094927
 21
86.177558
  0
LINE
  8
17DEG_15
  6
CONTINUOUS
 62
    4
 10
42.307046
 20
86.300102
 11
46.59489
 21
88.775688
  0
LINE
  8
17DEG_15
  6
CONTINUOUS
 62
    4
 10
47.488708
 20
85.827555
 11
47.747527
 21
84.86163
  0
LINE
  8
17DEG_15
  6
CONTINUOUS
 62
    4
 10
45.988671
 20
88.425685
 11
45.729852
 21
89.39161
  0
LINE
  8
17DEG_15
  6
CONTINUOUS
 62
    4
 10
45.988671
 20
88.425685
 11
45.281565
 21
89.132795
  0
LINE
  8
17DEG_15
  6
CONTINUOUS
 62
    4
 10
47.488708
 20
85.827555
 11
48.195814
 21
85.120445
  0
LINE
  8
17DEG_15
  6
CONTINUOUS
 62
    4
 10
48.319145
 20
84.389206
 11
43.26046
 21
93.151077
  0
LINE
  8
17DEG_15
  6
CONTINUOUS
 62
    4
 10
77.114363
 20
61.074657
 11
73.382323
 21
67.538747
  0
LINE
  8
17DEG_15
  6
CONTINUOUS
 62
    4
 10
87.713675
 20
67.194173
 11
76.508143
 21
60.724653
  0
LINE
  8
17DEG_15
  6
CONTINUOUS
 62
    4
 10
83.981627
 20
73.658259
 11
72.776104
 21
67.188753
  0
LINE
  8
17DEG_15
  6
CONTINUOUS
 62
    4
 10
77.114363
 20
61.074657
 11
76.407252
 21
61.781762
  0
LINE
  8
17DEG_15
  6
CONTINUOUS
 62
    4
 10
77.114363
 20
61.074657
 11
76.855539
 21
62.040581
  0
LINE
  8
17DEG_15
  6
CONTINUOUS
 62
    4
 10
73.382323
 20
67.538747
 11
73.641138
 21
66.572822
  0
LINE
  8
17DEG_15
  6
CONTINUOUS
 62
    4
 10
73.382323
 20
67.538747
 11
74.089425
 21
66.831646
  0
LINE
  8
17DEG_15
  6
CONTINUOUS
 62
    4
 10
87.713675
 20
49.403248
 11
98.90982
 21
49.403248
  0
LINE
  8
17DEG_15
  6
CONTINUOUS
 62
    4
 10
98.90982
 20
73.65825
 11
98.90982
 21
48.703246
  0
LINE
  8
17DEG_15
  6
CONTINUOUS
 62
    4
 10
87.713675
 20
49.403248
 11
88.6796
 21
49.662063
  0
LINE
  8
17DEG_15
  6
CONTINUOUS
 62
    4
 10
87.713675
 20
49.403248
 11
88.6796
 21
49.144425
  0
LINE
  8
17DEG_15
  6
CONTINUOUS
 62
    4
 10
98.90982
 20
49.403248
 11
97.943895
 21
49.662063
  0
LINE
  8
17DEG_15
  6
CONTINUOUS
 62
    4
 10
98.90982
 20
49.403248
 11
97.943895
 21
49.144425
  0
LINE
  8
17DEG_15
  6
CONTINUOUS
 62
    4
 10
87.713675
 20
67.194173
 11
87.713675
 21
48.703246
  0
LINE
  8
17DEG_15
  6
CONTINUOUS
 62
    4
 10
105.76134
 20
67.194173
 11
105.76134
 21
73.658242
  0
LINE
  8
17DEG_15
  6
CONTINUOUS
 62
    4
 10
105.76134
 20
73.658242
 11
106.46134
 21
73.658242
  0
LINE
  8
17DEG_15
  6
CONTINUOUS
 62
    4
 10
105.76134
 20
67.194173
 11
105.50253
 21
68.160102
  0
LINE
  8
17DEG_15
  6
CONTINUOUS
 62
    4
 10
105.76134
 20
67.194173
 11
106.02016
 21
68.160102
  0
LINE
  8
17DEG_15
  6
CONTINUOUS
 62
    4
 10
105.76134
 20
73.658242
 11
105.50253
 21
72.692308
  0
LINE
  8
17DEG_15
  6
CONTINUOUS
 62
    4
 10
105.76134
 20
73.658242
 11
106.02016
 21
72.692308
  0
LINE
  8
17DEG_15
  6
CONTINUOUS
 62
    4
 10
87.713675
 20
67.194173
 11
106.46134
 21
67.194173
  0
LINE
  8
17DEG_15
  6
CONTINUOUS
 62
    4
 10
82.151832
 20
76.827552
 11
91.678108
 21
82.32755
  0
LINE
  8
17DEG_15
  6
CONTINUOUS
 62
    4
 10
83.981627
 20
73.658259
 11
81.801828
 21
77.433771
  0
LINE
  8
17DEG_15
  6
CONTINUOUS
 62
    4
 10
93.507904
 20
79.158258
 11
91.328114
 21
82.93377
  0
LINE
  8
17DEG_15
  6
CONTINUOUS
 62
    4
 10
82.151832
 20
76.827552
 11
82.858942
 21
77.534662
  0
LINE
  8
17DEG_15
  6
CONTINUOUS
 62
    4
 10
82.151832
 20
76.827552
 11
83.117756
 21
77.086375
  0
LINE
  8
17DEG_15
  6
CONTINUOUS
 62
    4
 10
91.678108
 20
82.32755
 11
90.712183
 21
82.068727
  0
LINE
  8
17DEG_15
  6
CONTINUOUS
 62
    4
 10
91.678108
 20
82.32755
 11
90.970998
 21
81.62044
  0
LINE
  8
17DEG_15
  6
CONTINUOUS
 62
    4
 10
91.678117
 20
82.32755
 11
96.008248
 21
84.827554
  0
LINE
  8
17DEG_15
  6
CONTINUOUS
 62
    4
 10
91.678117
 20
82.32755
 11
92.385227
 21
83.034661
  0
LINE
  8
17DEG_15
  6
CONTINUOUS
 62
    4
 10
91.678117
 20
82.32755
 11
92.644042
 21
82.586374
  0
LINE
  8
17DEG_15
  6
CONTINUOUS
 62
    4
 10
96.008248
 20
84.827554
 11
95.042323
 21
84.56873
  0
LINE
  8
17DEG_15
  6
CONTINUOUS
 62
    4
 10
96.008248
 20
84.827554
 11
95.301138
 21
84.120444
  0
LINE
  8
17DEG_15
  6
CONTINUOUS
 62
    4
 10
99.570072
 20
78.658275
 11
95.658245
 21
85.433773
  0
LINE
  8
17DEG_15
  6
CONTINUOUS
 62
    4
 10
84.658956
 20
105.46865
 11
84.658956
 21
113.23266
  0
LINE
  8
17DEG_15
  6
CONTINUOUS
 62
    4
 10
95.078491
 20
105.46865
 11
83.958959
 21
105.46865
  0
LINE
  8
17DEG_15
  6
CONTINUOUS
 62
    4
 10
95.078491
 20
113.23266
 11
83.958959
 21
113.23266
  0
LINE
  8
17DEG_15
  6
CONTINUOUS
 62
    4
 10
84.658956
 20
105.46865
 11
84.400142
 21
106.43458
  0
LINE
  8
17DEG_15
  6
CONTINUOUS
 62
    4
 10
84.658956
 20
105.46865
 11
84.917771
 21
106.43458
  0
LINE
  8
17DEG_15
  6
CONTINUOUS
 62
    4
 10
84.658956
 20
113.23266
 11
84.400142
 21
112.26673
  0
LINE
  8
17DEG_15
  6
CONTINUOUS
 62
    4
 10
84.658956
 20
113.23266
 11
84.917771
 21
112.26673
  0
LINE
  8
17DEG_15
  6
CONTINUOUS
 62
    7
 10
46.719079
 20
78.658275
 11
154.54599
 21
78.658275
  0
LINE
  8
17DEG_15
  6
CONTINUOUS
 62
    7
 10
98.90982
 20
73.65825
 11
154.54599
 21
73.65825
  0
LINE
  8
17DEG_15
  6
CONTINUOUS
 62
    7
 10
30.410068
 20
29.623548
 11
154.54599
 21
29.623548
  0
LINE
  8
17DEG_15
  6
CONTINUOUS
 62
    7
 10
30.410068
 20
19.623567
 11
154.54599
 21
19.623567
  0
LINE
  8
CATH_TER
  6
CONTINUOUS
 62
    4
 10
216.2224
 20
177.89091
 11
229.16781
 21
177.89091
  0
LINE
  8
CATH_TER
  6
CONTINUOUS
 62
    4
 10
216.2224
 20
175.3909
 11
229.16781
 21
175.3909
  0
LINE
  8
CATH_TER
  6
CONTINUOUS
 62
    4
 10
228.46779
 20
177.89091
 11
228.20898
 21
178.85684
  0
LINE
  8
CATH_TER
  6
CONTINUOUS
 62
    4
 10
228.46779
 20
177.89091
 11
228.72663
 21
178.85684
  0
LINE
  8
CATH_TER
  6
CONTINUOUS
 62
    4
 10
228.46779
 20
175.3909
 11
228.20898
 21
174.42497
  0
LINE
  8
CATH_TER
  6
CONTINUOUS
 62
    4
 10
228.46779
 20
175.3909
 11
228.72663
 21
174.42497
  0
LINE
  8
CATH_TER
  6
CONTINUOUS
 62
    4
 10
228.46779
 20
183.20614
 11
228.46779
 21
173.2396
  0
LINE
  8
ADD_LINE
  6
DOT
 62
    7
 10
211.35417
 20
55.567449
 11
285.37576
 21
55.567449
  0
LINE
  8
ADD_LINE
  6
DOT
 62
    7
 10
220.08491
 20
65.057401
 11
220.08491
 21
12.293292
  0
LINE
  8
ADD_LINE
  6
DOT
 62
    7
 10
211.35417
 20
50.567455
 11
285.37576
 21
50.567455
  0
LINE
  8
ADD_LINE
  6
DOT
 62
    7
 10
211.35417
 20
45.567453
 11
285.37576
 21
45.567453
  0
LINE
  8
ADD_LINE
  6
DOT
 62
    7
 10
211.35417
 20
40.567455
 11
285.37576
 21
40.567455
  0
LINE
  8
ADD_LINE
  6
DOT
 62
    7
 10
211.35417
 20
35.567457
 11
285.37576
 21
35.567457
  0
LINE
  8
ADD_LINE
  6
DOT
 62
    7
 10
211.35417
 20
30.567454
 11
285.37576
 21
30.567454
  0
LINE
  8
ADD_LINE
  6
DOT
 62
    7
 10
211.35417
 20
25.567454
 11
285.37576
 21
25.567454
  0
LINE
  8
ADD_LINE
  6
DOT
 62
    7
 10
211.35417
 20
20.567454
 11
285.37576
 21
20.567454
  0
LINE
  8
17DEG_15
  6
CONTINUOUS
 62
    4
 10
22.879993
 20
54.321292
 11
4.8529269
 21
54.321292
  0
LINE
  8
17DEG_15
  6
CONTINUOUS
 62
    4
 10
41.283939
 20
78.20382
 11
22.169585
 21
45.096795
  0
LINE
  8
17DEG_15
  6
CONTINUOUS
 62
    4
 10
22.169585
 20
45.096795
 11
5.6121228
 21
45.096795
  0
LINE
  8
17DEG_15
  6
CONTINUOUS
 62
    4
 10
37.860893
 20
80.268975
 11
37.602074
 21
79.30305
  0
LINE
  8
17DEG_15
  6
CONTINUOUS
 62
    4
 10
37.860893
 20
80.268975
 11
37.153787
 21
79.561865
  0
LINE
  8
17DEG_15
  6
CONTINUOUS
 62
    4
 10
41.283939
 20
78.20382
 11
41.025116
 21
77.237895
  0
LINE
  8
17DEG_15
  6
CONTINUOUS
 62
    4
 10
41.283939
 20
78.20382
 11
40.576829
 21
77.49671
  0
LINE
  8
17DEG_15
  6
CONTINUOUS
 62
    4
 10
21.147941
 20
51.321293
 11
4.8529269
 21
51.321293
  0
LINE
  8
17DEG_15
  6
CONTINUOUS
 62
    4
 10
37.860893
 20
80.268975
 11
21.147941
 21
51.321293
  0
LINE
  8
17DEG_15
  6
CONTINUOUS
 62
    4
 10
99.570072
 20
78.658275
 11
110.02508
 21
96.76688
  0
LINE
  8
17DEG_15
  6
CONTINUOUS
 62
    4
 10
110.02508
 20
96.76688
 11
126.84887
 21
96.76688
  0
LINE
  8
17DEG_15
  6
CONTINUOUS
 62
    4
 10
108.29302
 20
93.766876
 11
126.84887
 21
93.766876
  0
LINE
  8
17DEG_15
  6
CONTINUOUS
 62
    4
 10
99.570072
 20
78.658275
 11
99.828895
 21
79.6242
  0
LINE
  8
17DEG_15
  6
CONTINUOUS
 62
    4
 10
99.570072
 20
78.658275
 11
100.27718
 21
79.365385
  0
LINE
  8
17DEG_15
  6
CONTINUOUS
 62
    4
 10
8.735438
 20
73.65825
 11
8.735438
 21
86.300076
  0
LINE
  8
17DEG_15
  6
CONTINUOUS
 62
    4
 10
30.410068
 20
73.65825
 11
8.0354378
 21
73.65825
  0
LINE
  8
17DEG_15
  6
CONTINUOUS
 62
    4
 10
8.735438
 20
73.65825
 11
8.4766189
 21
74.624175
  0
LINE
  8
17DEG_15
  6
CONTINUOUS
 62
    4
 10
8.735438
 20
73.65825
 11
8.9942571
 21
74.624175
  0
LINE
  8
17DEG_15
  6
CONTINUOUS
 62
    4
 10
8.735438
 20
86.300076
 11
8.4766189
 21
85.334151
  0
LINE
  8
17DEG_15
  6
CONTINUOUS
 62
    4
 10
8.735438
 20
86.300076
 11
8.9942571
 21
85.334151
  0
LINE
  8
17DEG_15
  6
CONTINUOUS
 62
    4
 10
30.410068
 20
110.80793
 11
42.307072
 21
110.80793
  0
LINE
  8
17DEG_15
  6
CONTINUOUS
 62
    4
 10
42.307072
 20
86.300102
 11
42.307072
 21
111.50793
  0
LINE
  8
17DEG_15
  6
CONTINUOUS
 62
    4
 10
30.410068
 20
110.80793
 11
31.375993
 21
111.06676
  0
LINE
  8
17DEG_15
  6
CONTINUOUS
 62
    4
 10
30.410068
 20
110.80793
 11
31.375993
 21
110.54912
  0
LINE
  8
17DEG_15
  6
CONTINUOUS
 62
    4
 10
42.307072
 20
110.80793
 11
41.341147
 21
111.06676
  0
LINE
  8
17DEG_15
  6
CONTINUOUS
 62
    4
 10
42.307072
 20
110.80793
 11
41.341147
 21
110.54912
  0
LINE
  8
17DEG_15
  6
CONTINUOUS
 62
    4
 10
42.307046
 20
86.300076
 11
8.0354378
 21
86.300076
  0
LINE
  8
17DEG_15
  6
CONTINUOUS
 62
    4
 10
30.410068
 20
79.431351
 11
30.410068
 21
111.50793
  0
LINE
  8
ADD_LINE
  6
DOT
 62
    7
 10
64.985407
 20
179.98131
 11
64.985407
 21
176.4407
  0
LINE
  8
CATH_TER
  6
CENTER1
 62
    7
 10
66.75519
 20
180.89445
 11
59.359535
 21
176.62456
  0
LINE
  8
INNER_SH
  6
CENTER1
 62
    7
 10
58.222406
 20
177.88967
 11
58.222406
 21
171.66088
  0
LINE
  8
INNER_SH
  6
CENTER1
 62
    7
 10
78.222402
 20
178.92052
 11
78.222402
 21
171.66088
  0
LINE
  8
INNER_SH
  6
CENTER1
 62
    7
 10
68.222406
 20
178.92052
 11
68.222406
 21
171.66088
  0
LINE
  8
INNER_SH
  6
CENTER1
 62
    7
 10
105.09239
 20
178.92052
 11
105.09239
 21
171.66088
  0
LINE
  8
INNER_SH
  6
CENTER1
 62
    7
 10
112.59239
 20
178.92052
 11
112.59239
 21
171.66088
  0
LINE
  8
INNER_SH
  6
CENTER1
 62
    7
 10
72.485408
 20
181.44036
 11
72.485408
 21
174.56804
  0
LINE
  8
INNER_SH
  6
CENTER1
 62
    7
 10
117.4854
 20
181.44036
 11
117.4854
 21
174.56804
  0
LINE
  8
INNER_SH
  6
CENTER1
 62
    7
 10
162.4854
 20
181.44036
 11
162.4854
 21
175.78979
  0
LINE
  8
CATH_TER
  6
CENTER1
 62
    7
 10
64.705355
 20
150.87355
 11
143.12006
 21
150.87355
  0
LINE
  8
CATH_TER
  6
CENTER1
 62
    7
 10
143.12006
 20
150.87355
 11
219.86722
 21
150.87355
  0
LINE
  8
INNER_SH
  6
CENTER1
 62
    7
 10
162.4854
 20
151.96573
 11
162.4854
 21
149.82767
  0
LINE
  8
INNER_SH
  6
CENTER1
 62
    7
 10
117.4854
 20
152.11843
 11
117.4854
 21
149.36952
  0
LINE
  8
INNER_SH
  6
CENTER1
 62
    7
 10
112.59239
 20
152.11843
 11
112.59239
 21
149.36952
  0
LINE
  8
INNER_SH
  6
CENTER1
 62
    7
 10
105.09239
 20
152.42389
 11
105.09239
 21
149.36952
  0
LINE
  8
INNER_SH
  6
CENTER1
 62
    7
 10
95.092401
 20
178.92052
 11
95.092401
 21
171.66088
  0
LINE
  8
INNER_SH
  6
CENTER1
 62
    7
 10
95.092401
 20
152.11843
 11
95.092401
 21
149.36952
  0
LINE
  8
INNER_SH
  6
CENTER1
 62
    7
 10
78.222402
 20
152.27115
 11
78.222402
 21
149.36952
  0
LINE
  8
INNER_SH
  6
CENTER1
 62
    7
 10
72.485408
 20
152.11843
 11
72.485408
 21
149.52224
  0
LINE
  8
INNER_SH
  6
CENTER1
 62
    7
 10
68.222406
 20
152.27115
 11
68.222406
 21
149.36952
  0
LINE
  8
INNER_SH
  6
CENTER1
 62
    7
 10
209.98539
 20
151.96573
 11
209.98539
 21
149.82767
  0
LINE
  8
INNER_SH
  6
CENTER1
 62
    7
 10
209.98539
 20
181.44036
 11
209.98539
 21
175.78979
  0
LINE
  8
INNER_SH
  6
DASHED1
 62
    7
 10
212.2224
 20
155.60095
 11
212.2224
 21
146.22037
  0
LINE
  8
INNER_SH
  6
DASHED1
 62
    7
 10
212.2224
 20
179.66416
 11
212.2224
 21
172.59474
  0
LINE
  8
INNER_SH
  6
CENTER1
 62
    7
 10
56.607708
 20
150.87355
 11
60.009577
 21
150.87355
  0
LINE
  8
INNER_SH
  6
CENTER1
 62
    7
 10
58.222406
 20
152.2349
 11
58.222406
 21
149.45155
  0
LINE
  8
SHIELD_P
  6
CONTINUOUS
 62
    4
 10
212.2224
 20
158.58225
 11
216.2224
 21
158.58225
  0
LINE
  8
SHIELD_P
  6
CONTINUOUS
 62
    4
 10
212.2224
 20
153.37355
 11
212.2224
 21
159.28225
  0
LINE
  8
SHIELD_P
  6
CONTINUOUS
 62
    4
 10
216.2224
 20
153.37355
 11
216.2224
 21
159.28225
  0
LINE
  8
SHIELD_P
  6
CONTINUOUS
 62
    4
 10
212.2224
 20
158.58225
 11
213.18833
 21
158.84107
  0
LINE
  8
SHIELD_P
  6
CONTINUOUS
 62
    4
 10
212.2224
 20
158.58225
 11
213.18833
 21
158.32342
  0
LINE
  8
SHIELD_P
  6
CONTINUOUS
 62
    4
 10
216.2224
 20
158.58225
 11
215.25648
 21
158.84107
  0
LINE
  8
SHIELD_P
  6
CONTINUOUS
 62
    4
 10
216.2224
 20
158.58225
 11
215.25648
 21
158.32342
  0
LINE
  8
SHIELD_P
  6
CONTINUOUS
 62
    4
 10
55.722407
 20
138.02456
 11
58.222406
 21
138.02456
  0
LINE
  8
SHIELD_P
  6
CONTINUOUS
 62
    4
 10
55.722407
 20
148.37356
 11
55.722407
 21
137.32455
  0
LINE
  8
SHIELD_P
  6
CONTINUOUS
 62
    4
 10
58.222406
 20
148.37356
 11
58.222406
 21
137.32455
  0
LINE
  8
SHIELD_P
  6
CONTINUOUS
 62
    4
 10
55.722407
 20
138.02456
 11
56.688332
 21
138.28338
  0
LINE
  8
SHIELD_P
  6
CONTINUOUS
 62
    4
 10
55.722407
 20
138.02456
 11
56.688332
 21
137.76573
  0
LINE
  8
SHIELD_P
  6
CONTINUOUS
 62
    4
 10
58.222406
 20
138.02456
 11
57.256481
 21
138.28338
  0
LINE
  8
SHIELD_P
  6
CONTINUOUS
 62
    4
 10
58.222406
 20
138.02456
 11
57.256481
 21
137.76573
  0
LINE
  8
SHIELD_P
  6
CONTINUOUS
 62
    4
 10
58.222406
 20
138.02456
 11
68.222406
 21
138.02456
  0
LINE
  8
SHIELD_P
  6
CONTINUOUS
 62
    4
 10
68.222406
 20
148.37356
 11
68.222406
 21
137.32455
  0
LINE
  8
SHIELD_P
  6
CONTINUOUS
 62
    4
 10
58.222406
 20
138.02456
 11
59.188335
 21
138.28338
  0
LINE
  8
SHIELD_P
  6
CONTINUOUS
 62
    4
 10
58.222406
 20
138.02456
 11
59.188335
 21
137.76573
  0
LINE
  8
SHIELD_P
  6
CONTINUOUS
 62
    4
 10
68.222406
 20
138.02456
 11
67.256477
 21
138.28338
  0
LINE
  8
SHIELD_P
  6
CONTINUOUS
 62
    4
 10
68.222406
 20
138.02456
 11
67.256477
 21
137.76573
  0
LINE
  8
SHIELD_P
  6
CONTINUOUS
 62
    4
 10
68.222406
 20
138.02456
 11
78.222402
 21
138.02456
  0
LINE
  8
SHIELD_P
  6
CONTINUOUS
 62
    4
 10
78.222402
 20
148.37356
 11
78.222402
 21
137.32455
  0
LINE
  8
SHIELD_P
  6
CONTINUOUS
 62
    4
 10
68.222406
 20
138.02456
 11
69.188331
 21
138.28338
  0
LINE
  8
SHIELD_P
  6
CONTINUOUS
 62
    4
 10
68.222406
 20
138.02456
 11
69.188331
 21
137.76573
  0
LINE
  8
SHIELD_P
  6
CONTINUOUS
 62
    4
 10
78.222402
 20
138.02456
 11
77.256478
 21
138.28338
  0
LINE
  8
SHIELD_P
  6
CONTINUOUS
 62
    4
 10
78.222402
 20
138.02456
 11
77.256478
 21
137.76573
  0
LINE
  8
SHIELD_P
  6
CONTINUOUS
 62
    4
 10
78.222402
 20
138.02456
 11
95.092401
 21
138.02456
  0
LINE
  8
SHIELD_P
  6
CONTINUOUS
 62
    4
 10
95.092401
 20
148.37356
 11
95.092401
 21
137.32455
  0
LINE
  8
SHIELD_P
  6
CONTINUOUS
 62
    4
 10
78.222402
 20
138.02456
 11
79.188327
 21
138.28338
  0
LINE
  8
SHIELD_P
  6
CONTINUOUS
 62
    4
 10
78.222402
 20
138.02456
 11
79.188327
 21
137.76573
  0
LINE
  8
SHIELD_P
  6
CONTINUOUS
 62
    4
 10
95.092401
 20
138.02456
 11
94.126468
 21
138.28338
  0
LINE
  8
SHIELD_P
  6
CONTINUOUS
 62
    4
 10
95.092401
 20
138.02456
 11
94.126468
 21
137.76573
  0
LINE
  8
SHIELD_P
  6
CONTINUOUS
 62
    4
 10
95.092401
 20
138.02456
 11
105.09239
 21
138.02456
  0
LINE
  8
SHIELD_P
  6
CONTINUOUS
 62
    4
 10
105.09239
 20
148.37356
 11
105.09239
 21
137.32455
  0
LINE
  8
SHIELD_P
  6
CONTINUOUS
 62
    4
 10
95.092401
 20
138.02456
 11
96.058326
 21
138.28338
  0
LINE
  8
SHIELD_P
  6
CONTINUOUS
 62
    4
 10
95.092401
 20
138.02456
 11
96.058326
 21
137.76573
  0
LINE
  8
SHIELD_P
  6
CONTINUOUS
 62
    4
 10
105.09239
 20
138.02456
 11
104.12647
 21
138.28338
  0
LINE
  8
SHIELD_P
  6
CONTINUOUS
 62
    4
 10
105.09239
 20
138.02456
 11
104.12647
 21
137.76573
  0
LINE
  8
SHIELD_P
  6
CONTINUOUS
 62
    4
 10
105.09239
 20
138.02456
 11
112.59239
 21
138.02456
  0
LINE
  8
SHIELD_P
  6
CONTINUOUS
 62
    4
 10
112.59239
 20
148.37356
 11
112.59239
 21
137.32455
  0
LINE
  8
SHIELD_P
  6
CONTINUOUS
 62
    4
 10
105.09239
 20
138.02456
 11
106.05832
 21
138.28338
  0
LINE
  8
SHIELD_P
  6
CONTINUOUS
 62
    4
 10
105.09239
 20
138.02456
 11
106.05832
 21
137.76573
  0
LINE
  8
SHIELD_P
  6
CONTINUOUS
 62
    4
 10
112.59239
 20
138.02456
 11
111.62647
 21
138.28338
  0
LINE
  8
SHIELD_P
  6
CONTINUOUS
 62
    4
 10
112.59239
 20
138.02456
 11
111.62647
 21
137.76573
  0
LINE
  8
SHIELD_P
  6
CONTINUOUS
 62
    4
 10
55.722407
 20
157.31326
 11
72.485408
 21
157.31326
  0
LINE
  8
SHIELD_P
  6
CONTINUOUS
 62
    4
 10
55.722407
 20
153.37355
 11
55.722407
 21
158.01326
  0
LINE
  8
SHIELD_P
  6
CONTINUOUS
 62
    4
 10
72.485408
 20
153.37355
 11
72.485408
 21
158.01326
  0
LINE
  8
SHIELD_P
  6
CONTINUOUS
 62
    4
 10
55.722407
 20
157.31326
 11
56.688332
 21
157.57208
  0
LINE
  8
SHIELD_P
  6
CONTINUOUS
 62
    4
 10
55.722407
 20
157.31326
 11
56.688332
 21
157.05443
  0
LINE
  8
SHIELD_P
  6
CONTINUOUS
 62
    4
 10
72.485408
 20
157.31326
 11
71.519479
 21
157.57208
  0
LINE
  8
SHIELD_P
  6
CONTINUOUS
 62
    4
 10
72.485408
 20
157.31326
 11
71.519479
 21
157.05443
  0
LINE
  8
SHIELD_P
  6
CONTINUOUS
 62
    4
 10
72.485408
 20
157.31326
 11
117.4854
 21
157.31326
  0
LINE
  8
SHIELD_P
  6
CONTINUOUS
 62
    4
 10
117.4854
 20
153.37355
 11
117.4854
 21
158.01326
  0
LINE
  8
SHIELD_P
  6
CONTINUOUS
 62
    4
 10
72.485408
 20
157.31326
 11
73.451333
 21
157.57208
  0
LINE
  8
SHIELD_P
  6
CONTINUOUS
 62
    4
 10
72.485408
 20
157.31326
 11
73.451333
 21
157.05443
  0
LINE
  8
SHIELD_P
  6
CONTINUOUS
 62
    4
 10
117.4854
 20
157.31326
 11
116.51947
 21
157.57208
  0
LINE
  8
SHIELD_P
  6
CONTINUOUS
 62
    4
 10
117.4854
 20
157.31326
 11
116.51947
 21
157.05443
  0
LINE
  8
SHIELD_P
  6
CONTINUOUS
 62
    4
 10
117.4854
 20
157.31326
 11
162.4854
 21
157.31326
  0
LINE
  8
SHIELD_P
  6
CONTINUOUS
 62
    4
 10
162.4854
 20
153.37355
 11
162.4854
 21
158.01326
  0
LINE
  8
SHIELD_P
  6
CONTINUOUS
 62
    4
 10
117.4854
 20
157.31326
 11
118.45133
 21
157.57208
  0
LINE
  8
SHIELD_P
  6
CONTINUOUS
 62
    4
 10
117.4854
 20
157.31326
 11
118.45133
 21
157.05443
  0
LINE
  8
SHIELD_P
  6
CONTINUOUS
 62
    4
 10
162.4854
 20
157.31326
 11
161.51947
 21
157.57208
  0
LINE
  8
SHIELD_P
  6
CONTINUOUS
 62
    4
 10
162.4854
 20
157.31326
 11
161.51947
 21
157.05443
  0
LINE
  8
SHIELD_P
  6
CONTINUOUS
 62
    4
 10
162.4854
 20
157.31326
 11
209.98539
 21
157.31326
  0
LINE
  8
SHIELD_P
  6
CONTINUOUS
 62
    4
 10
209.98539
 20
153.37355
 11
209.98539
 21
158.01326
  0
LINE
  8
SHIELD_P
  6
CONTINUOUS
 62
    4
 10
162.4854
 20
157.31326
 11
163.45132
 21
157.57208
  0
LINE
  8
SHIELD_P
  6
CONTINUOUS
 62
    4
 10
162.4854
 20
157.31326
 11
163.45132
 21
157.05443
  0
LINE
  8
SHIELD_P
  6
CONTINUOUS
 62
    4
 10
209.98539
 20
157.31326
 11
209.01946
 21
157.57208
  0
LINE
  8
SHIELD_P
  6
CONTINUOUS
 62
    4
 10
209.98539
 20
157.31326
 11
209.01946
 21
157.05443
  0
LINE
  8
SHIELD_P
  6
CONTINUOUS
 62
    4
 10
212.2224
 20
148.37356
 11
212.92951
 21
147.66645
  0
LINE
  8
SHIELD_P
  6
CONTINUOUS
 62
    4
 10
212.2224
 20
148.37356
 11
212.48122
 21
147.40762
  0
LINE
  8
SHIELD_P
  6
CONTINUOUS
 62
    4
 10
209.98539
 20
150.87355
 11
202.43772
 21
137.8006
  0
LINE
  8
SHIELD_P
  6
CONTINUOUS
 62
    4
 10
202.43772
 20
137.8006
 11
191.13644
 21
137.8006
  0
LINE
  8
SHIELD_P
  6
CONTINUOUS
 62
    4
 10
209.98539
 20
150.87355
 11
209.72657
 21
149.90762
  0
LINE
  8
SHIELD_P
  6
CONTINUOUS
 62
    4
 10
209.98539
 20
150.87355
 11
209.27828
 21
150.16644
  0
LINE
  8
SHIELD_P
  6
CONTINUOUS
 62
    4
 10
212.2224
 20
148.37356
 11
220.95326
 21
133.25126
  0
LINE
  8
SHIELD_P
  6
CONTINUOUS
 62
    4
 10
220.95326
 20
133.25126
 11
234.58098
 21
133.25126
  0
LINE
  8
SHIELD_P
  6
CONTINUOUS
 62
    4
 10
218.64387
 20
137.25125
 11
224.83462
 21
137.25125
  0
CIRCLE
  8
CATH_TER
  6
CONTINUOUS
 62
    7
 10
213.72241
 20
150.87355
 40
0.825
  0
ARC
  8
17DEG_15
  6
CONTINUOUS
 62
    7
 10
97.520254
 20
113.23266
 40
2.0000001
 50
146.0131
 51
33.986892
  0
ARC
  8
17DEG_15
  6
CONTINUOUS
 62
    7
 10
97.520254
 20
113.23266
 40
1.25
 50
116.56791
 51
63.432083
  0
ARC
  8
17DEG_15
  6
CONTINUOUS
 62
    7
 10
97.520254
 20
105.46865
 40
1.25
 50
296.56881
 51
243.43118
  0
ARC
  8
17DEG_15
  6
CONTINUOUS
 62
    7
 10
97.520254
 20
105.46865
 40
2.0000001
 50
326.01345
 51
213.98654
  0
ARC
  8
17DEG_15
  6
CONTINUOUS
 62
    4
 10
46.719079
 20
78.658275
 40
25.124415
 50
0
 51
120.00003
  0
ARC
  8
17DEG_15
  6
CONTINUOUS
 62
    4
 10
90.9098
 20
73.65825
 40
24.210232
 50
180
 51
210.00001
  0
ARC
  8
17DEG_15
  6
CONTINUOUS
 62
    7
 10
153.73219
 20
77.42287
 40
1.4793419
 50
301.19619
 51
56.626647
  0
ARC
  8
17DEG_15
  6
CONTINUOUS
 62
    7
 10
155.24678
 20
74.921625
 40
1.4447315
 50
121.19635
 51
240.98226
  0
ARC
  8
17DEG_15
  6
CONTINUOUS
 62
    7
 10
152.79135
 20
27.173196
 40
3.0137896
 50
299.60195
 51
54.39476
  0
ARC
  8
17DEG_15
  6
CONTINUOUS
 62
    7
 10
155.64259
 20
22.154497
 40
2.7582959
 50
119.60188
 51
246.57347
  0
CIRCLE
  8
INNER_SH
  6
CONTINUOUS
 62
    7
 10
68.222406
 20
150.87355
 40
0.7499999
  0
CIRCLE
  8
INNER_SH
  6
CONTINUOUS
 62
    7
 10
72.485408
 20
150.87355
 40
0.7499999
  0
CIRCLE
  8
INNER_SH
  6
CONTINUOUS
 62
    7
 10
78.222402
 20
150.87355
 40
0.7499999
  0
CIRCLE
  8
INNER_SH
  6
CONTINUOUS
 62
    7
 10
95.092401
 20
150.87355
 40
0.7499999
  0
CIRCLE
  8
INNER_SH
  6
CONTINUOUS
 62
    7
 10
105.09239
 20
150.87355
 40
0.7499999
  0
CIRCLE
  8
INNER_SH
  6
CONTINUOUS
 62
    7
 10
112.59239
 20
150.87355
 40
0.7499999
  0
CIRCLE
  8
INNER_SH
  6
CONTINUOUS
 62
    7
 10
117.4854
 20
150.87355
 40
0.7499999
  0
CIRCLE
  8
INNER_SH
  6
CONTINUOUS
 62
    7
 10
162.4854
 20
150.87355
 40
0.7499999
  0
CIRCLE
  8
INNER_SH
  6
CONTINUOUS
 62
    7
 10
209.98539
 20
150.87355
 40
0.7499999
  0
CIRCLE
  8
INNER_SH
  6
CONTINUOUS
 62
    7
 10
209.98539
 20
150.87355
 40
0.6999999
  0
CIRCLE
  8
INNER_SH
  6
CONTINUOUS
 62
    7
 10
162.4854
 20
150.87355
 40
0.6999999
  0
CIRCLE
  8
INNER_SH
  6
CONTINUOUS
 62
    7
 10
117.4854
 20
150.87355
 40
0.6999999
  0
CIRCLE
  8
INNER_SH
  6
CONTINUOUS
 62
    7
 10
112.59239
 20
150.87355
 40
0.6999999
  0
CIRCLE
  8
INNER_SH
  6
CONTINUOUS
 62
    7
 10
105.09239
 20
150.87355
 40
0.6999999
  0
CIRCLE
  8
INNER_SH
  6
CONTINUOUS
 62
    7
 10
95.092401
 20
150.87355
 40
0.6999999
  0
CIRCLE
  8
INNER_SH
  6
CONTINUOUS
 62
    7
 10
78.222402
 20
150.87355
 40
0.6999999
  0
CIRCLE
  8
INNER_SH
  6
CONTINUOUS
 62
    7
 10
72.485408
 20
150.87355
 40
0.6999999
  0
CIRCLE
  8
INNER_SH
  6
CONTINUOUS
 62
    7
 10
68.222406
 20
150.87355
 40
0.6999999
  0
TEXT
  8
17DEG_15
 10
87.743745
 20
90.508127
 40
2.5
 41
1
 50
0
  1
A
  0
TEXT
  8
17DEG_15
 10
104.68439
 20
61.166064
 40
2.5
 41
1
 50
0
  1
A'
  0
TEXT
  8
17DEG_15
 10
85.664557
 20
116.10257
 40
2.5
 41
1
 50
0
  1
A-A'
  0
TEXT
  8
CATH_TER
 10
56.049659
 20
194.86871
 40
2.5
 41
1
 50
0
  1
16.309
  0
TEXT
  8
CATH_TER
 10
73.339655
 20
194.86871
 40
2.5
 41
1
 50
0
  1
52.851
  0
TEXT
  8
CATH_TER
 10
190.2624
 20
194.86871
 40
2.5
 41
1
 50
0
  1
91.34
  0
TEXT
  8
CATH_TER
 10
220.11959
 20
165.67666
 40
2.5
 41
1
 50
0
  1
φ3.3トウシ
  0
TEXT
  8
CATH_TER
 10
36.696669
 20
148.37354
 40
2.5
 41
1
 50
90
  1
10.0
  0
TEXT
  8
CATH_TER
 10
65.365296
 20
163.98694
 40
2.5
 41
1
 50
0
  1
53.572
  0
TEXT
  8
CATH_TER
 10
82.490243
 20
163.98694
 40
2.5
 41
1
 50
0
  1
14.928
  0
TEXT
  8
CATH_TER
 10
121.99023
 20
163.98694
 40
2.5
 41
1
 50
0
  1
145.572
  0
TEXT
  8
CATH_TER
 10
162.74024
 20
163.98694
 40
2.5
 41
1
 50
0
  1
14.928
  0
TEXT
  8
CATH_TER
 10
190.09735
 20
163.98694
 40
2.5
 41
1
 50
0
  1
92.00
  0
TEXT
  8
CATH_TER
 10
126.6774
 20
194.86871
 40
2.5
 41
1
 50
0
  1
160.50
  0
TEXT
  8
CATH_TER
 10
217.28268
 20
188.02273
 40
2.5
 41
1
 50
0
  1
5.0
  0
TEXT
  8
17DEG_15
 10
57.366221
 20
102.09967
 40
2.5
 41
1
 50
330.00007
  1
120ﾟ
  0
TEXT
  8
17DEG_15
 10
51.396134
 20
89.959938
 40
2.5
 41
1
 50
300.00001
  1
6.5
  0
TEXT
  8
17DEG_15
 10
57.95266
 20
93.84698
 40
2.5
 41
1
 50
299.99996
  1
8.824
  0
TEXT
  8
17DEG_15
 10
67.526836
 20
65.451659
 40
2.5
 41
1
 50
104.99996
  1
30ﾟ
  0
TEXT
  8
17DEG_15
 10
81.616757
 20
63.818457
 40
2.5
 41
1
 50
120.00012
  1
4.0
  0
TEXT
  8
17DEG_15
 10
43.943472
 20
92.968052
 40
2.5
 41
1
 50
300.00001
  1
3.0
  0
TEXT
  8
17DEG_15
 10
76.377839
 20
61.350374
 40
2.5
 41
1
 50
120.00004
  1
7.464
  0
TEXT
  8
17DEG_15
 10
88.31175
 20
49.903245
 40
2.5
 41
1
 50
0
  1
(11.196)
  0
TEXT
  8
17DEG_15
 10
105.26134
 20
66.051203
 40
2.5
 41
1
 50
90
  1
(6.464)
  0
TEXT
  8
17DEG_15
 10
91.96939
 20
83.073068
 40
2.5
 41
1
 50
30.000305
  1
5.0
  0
TEXT
  8
17DEG_15
 10
84.499913
 20
78.760574
 40
2.5
 41
1
 50
29.999923
  1
11.0
  0
TEXT
  8
17DEG_15
 10
84.158956
 20
106.22566
 40
2.5
 41
1
 50
90
  1
7.764
  0
TEXT
  8
CATH_TER
 10
228.01252
 20
179.47799
 40
2.5
 41
1
 50
90
  1
5.0
  0
TEXT
  8
17DEG_15
 10
11.046897
 20
116.23373
 40
3
 41
1
 50
0
  1
部分詳細図
  0
TEXT
  8
MID_CYLI
 10
220.5849
 20
56.06745
 40
3
 41
1
 50
0
  1
terminator mount bar
  0
TEXT
  8
MID_CYLI
 10
220.5849
 20
51.067451
 40
3
 41
1
 50
0
  1
97/10/28  Ｎ研　居波
  0
TEXT
  8
MID_CYLI
 10
220.5849
 20
41.067455
 40
3
 41
1
 50
0
  1
材質:Al
  0
TEXT
  8
MID_CYLI
 10
220.5849
 20
36.067455
 40
3
 41
1
 50
0
  1
個数:20
  0
TEXT
  8
17DEG_15
 10
5.352927
 20
54.821293
 40
2.5
 41
1
 50
0
  1
M3深サ6
  0
TEXT
  8
17DEG_15
 10
5.352927
 20
51.821293
 40
2.5
 41
1
 50
0
  1
下穴深サ9
  0
TEXT
  8
17DEG_15
 10
6.112123
 20
45.596796
 40
2.5
 41
1
 50
0
  1
φ2.2深サ4
  0
TEXT
  8
17DEG_15
 10
110.52508
 20
94.266877
 40
2.5
 41
1
 50
0
  1
φ4座グリ
  0
TEXT
  8
17DEG_15
 10
110.52508
 20
97.266881
 40
2.5
 41
1
 50
0
  1
4-φ2.4トウシ
  0
TEXT
  8
17DEG_15
 10
8.2354379
 20
74.979165
 40
2.5
 41
1
 50
90
  1
(12.642)
  0
TEXT
  8
17DEG_15
 10
31.358568
 20
111.30794
 40
2.5
 41
1
 50
0
  1
(11.897)
  0
TEXT
  8
SHIELD_P
 10
211.7224
 20
159.08226
 40
2.5
 41
1
 50
0
  1
8.00
  0
TEXT
  8
SHIELD_P
 10
54.472405
 20
138.52456
 40
2.5
 41
1
 50
0
  1
5.00
  0
TEXT
  8
SHIELD_P
 10
60.097406
 20
138.52456
 40
2.5
 41
1
 50
0
  1
20.00
  0
TEXT
  8
SHIELD_P
 10
70.097407
 20
138.52456
 40
2.5
 41
1
 50
0
  1
20.00
  0
TEXT
  8
SHIELD_P
 10
83.532395
 20
138.52456
 40
2.5
 41
1
 50
0
  1
33.74
  0
TEXT
  8
SHIELD_P
 10
96.967402
 20
138.52456
 40
2.5
 41
1
 50
0
  1
20.00
  0
TEXT
  8
SHIELD_P
 10
105.7174
 20
138.52456
 40
2.5
 41
1
 50
0
  1
15.00
  0
TEXT
  8
SHIELD_P
 10
60.978906
 20
157.81327
 40
2.5
 41
1
 50
0
  1
33.53
  0
TEXT
  8
SHIELD_P
 10
91.860406
 20
157.81327
 40
2.5
 41
1
 50
0
  1
90.00
  0
TEXT
  8
SHIELD_P
 10
136.8604
 20
157.81327
 40
2.5
 41
1
 50
0
  1
90.00
  0
TEXT
  8
SHIELD_P
 10
183.11039
 20
157.81327
 40
2.5
 41
1
 50
0
  1
95.00
  0
TEXT
  8
SHIELD_P
 10
219.14386
 20
137.75125
 40
2.5
 41
1
 50
0
  1
切断
  0
TEXT
  8
SHIELD_P
 10
191.63643
 20
138.3006
 40
2.5
 41
1
 50
0
  1
10-M3
  0
TEXT
  8
SHIELD_P
 10
220.58492
 20
46.067453
 40
3
 41
1
 50
0
  1
98/04/02  M3ねじ穴修正
  0
TEXT
  8
SHIELD_P
 10
221.45325
 20
133.75126
 40
2.5
 41
1
 50
0
  1
既存品加工
  0
ENDSEC
  0
EOF
