  0
SECTION
  2
HEADER
  9
$EXTMIN
 10
0
 20
0
  9
$EXTMAX
 10
297
 20
210
  0
ENDSEC
  0
SECTION
  2
TABLES
  0
TABLE
  2
LTYPE
 70
     9
  0
LTYPE
  2
CONTINUOUS
 70
    64
  3
実線
 72
    65
 73
     0
 40
0.0
  0
LTYPE
  2
DASHED1
 70
    64
  3
--  --  --  --  --  --  --  --  
 72
    65
 73
     2
 40
2.5
 49
1.25
 49
-1.25
  0
LTYPE
  2
DASHED2
 70
    64
  3
----    ----    ----    ----    
 72
    65
 73
     2
 40
5.0
 49
2.5
 49
-2.5
  0
LTYPE
  2
DASHED3
 70
    64
  3
------  ------  ------  ------  
 72
    65
 73
     2
 40
5.0
 49
3.75
 49
-1.25
  0
LTYPE
  2
CENTER1
 70
    64
  3
----- - ----- - ----- - ----- - 
 72
    65
 73
     4
 40
10.0
 49
6.25
 49
-1.25
 49
1.25
 49
-1.25
  0
LTYPE
  2
CENTER2
 70
    64
  3
----------  --  ----------  --  
 72
    65
 73
     4
 40
20.0
 49
12.5
 49
-2.5
 49
2.5
 49
-2.5
  0
LTYPE
  2
PHANTOM1
 70
    64
  3
--- - - --- - - --- - - --- - - 
 72
    65
 73
     6
 40
10.0
 49
3.25
 49
-1.25
 49
1.25
 49
-1.25
 49
1.25
 49
-1.25
  0
LTYPE
  2
PHANTOM2
 70
    64
  3
--------  -  -  --------  -  -  
 72
    65
 73
     6
 40
20.0
 49
10.0
 49
-2.5
 49
1.25
 49
-2.5
 49
1.25
 49
-2.5
  0
LTYPE
  2
DOT
 70
    64
  3
-   -   -   -   -   -   -   -   
 72
    65
 73
     2
 40
2.5
 49
0.625
 49
-1.875
  0
ENDTAB
  0
TABLE
  2
STYLE
 70
    1
  0
STYLE
  2
STANDARD
 70
    64
 40
0.0
 41
1.0
 42
0.0
 50
0.0
 71
     0
  3
TXT
  4
BIGFONT
  0
ENDTAB
  0
TABLE
  2
LAYER
 70
    4
  0
LAYER
  2
17DEG_15
 70
   64
 62
    7
  6
CONTINUOUS
  0
LAYER
  2
_K_X__
 70
   64
 62
    7
  6
CONTINUOUS
  0
LAYER
  2
CATH_PAR
 70
   64
 62
    7
  6
CONTINUOUS
  0
LAYER
  2
ADD_LINE
 70
   64
 62
    7
  6
CONTINUOUS
  0
ENDTAB
  0
ENDSEC
  0
SECTION
  2
ENTITIES
  0
LINE
  8
17DEG_15
  6
CENTER1
 62
    7
 10
50.277875
 20
68.236208
 11
162.65067
 21
68.236208
  0
LINE
  8
17DEG_15
  6
CONTINUOUS
 62
    7
 10
62.265276
 20
69.036208
 11
67.265287
 21
69.036208
  0
LINE
  8
17DEG_15
  6
CONTINUOUS
 62
    7
 10
62.265276
 20
67.43622
 11
67.265287
 21
67.43622
  0
LINE
  8
17DEG_15
  6
CONTINUOUS
 62
    7
 10
62.265276
 20
69.236205
 11
67.265287
 21
69.236205
  0
LINE
  8
17DEG_15
  6
CONTINUOUS
 62
    7
 10
67.265287
 20
69.236205
 11
67.265287
 21
67.236202
  0
LINE
  8
17DEG_15
  6
CONTINUOUS
 62
    7
 10
62.265276
 20
67.236202
 11
67.265287
 21
67.236202
  0
LINE
  8
17DEG_15
  6
CONTINUOUS
 62
    7
 10
67.265287
 20
67.236202
 11
67.842631
 21
68.236208
  0
LINE
  8
17DEG_15
  6
CONTINUOUS
 62
    7
 10
67.842631
 20
68.236208
 11
67.265287
 21
69.236205
  0
LINE
  8
17DEG_15
  6
CONTINUOUS
 62
    7
 10
62.265276
 20
70.736215
 11
62.265276
 21
65.736213
  0
LINE
  8
17DEG_15
  6
CONTINUOUS
 62
    7
 10
62.265276
 20
70.736215
 11
127.22526
 21
70.736215
  0
LINE
  8
17DEG_15
  6
CONTINUOUS
 62
    7
 10
127.22526
 20
70.736215
 11
127.22526
 21
65.736213
  0
LINE
  8
17DEG_15
  6
CONTINUOUS
 62
    7
 10
62.265276
 20
65.736213
 11
127.22526
 21
65.736213
  0
LINE
  8
17DEG_15
  6
CONTINUOUS
 62
    7
 10
142.22527
 20
70.636204
 11
142.22527
 21
65.836207
  0
LINE
  8
17DEG_15
  6
CONTINUOUS
 62
    7
 10
127.22526
 20
65.836207
 11
142.22527
 21
65.836207
  0
LINE
  8
17DEG_15
  6
CONTINUOUS
 62
    7
 10
127.22526
 20
70.636204
 11
142.22527
 21
70.636204
  0
LINE
  8
17DEG_15
  6
CONTINUOUS
 62
    4
 10
62.265276
 20
46.101775
 11
142.22527
 21
46.101775
  0
LINE
  8
17DEG_15
  6
CONTINUOUS
 62
    4
 10
62.265276
 20
65.736213
 11
62.265276
 21
45.401769
  0
LINE
  8
17DEG_15
  6
CONTINUOUS
 62
    4
 10
142.22527
 20
65.736213
 11
142.22527
 21
45.401769
  0
LINE
  8
17DEG_15
  6
CONTINUOUS
 62
    4
 10
62.265276
 20
46.101775
 11
63.231201
 21
46.360598
  0
LINE
  8
17DEG_15
  6
CONTINUOUS
 62
    4
 10
62.265276
 20
46.101775
 11
63.231201
 21
45.842951
  0
LINE
  8
17DEG_15
  6
CONTINUOUS
 62
    4
 10
142.22527
 20
46.101775
 11
141.25932
 21
46.360598
  0
LINE
  8
17DEG_15
  6
CONTINUOUS
 62
    4
 10
142.22527
 20
46.101775
 11
141.25932
 21
45.842951
  0
LINE
  8
17DEG_15
  6
CONTINUOUS
 62
    4
 10
127.22526
 20
55.891066
 11
142.22527
 21
55.891066
  0
LINE
  8
17DEG_15
  6
CONTINUOUS
 62
    4
 10
127.22526
 20
65.836207
 11
127.22526
 21
55.191059
  0
LINE
  8
17DEG_15
  6
CONTINUOUS
 62
    4
 10
142.22527
 20
65.836207
 11
142.22527
 21
55.191059
  0
LINE
  8
17DEG_15
  6
CONTINUOUS
 62
    4
 10
127.22526
 20
55.891066
 11
128.19119
 21
56.149889
  0
LINE
  8
17DEG_15
  6
CONTINUOUS
 62
    4
 10
127.22526
 20
55.891066
 11
128.19119
 21
55.632242
  0
LINE
  8
17DEG_15
  6
CONTINUOUS
 62
    4
 10
142.22527
 20
55.891066
 11
141.25932
 21
56.149889
  0
LINE
  8
17DEG_15
  6
CONTINUOUS
 62
    4
 10
142.22527
 20
55.891066
 11
141.25932
 21
55.632242
  0
LINE
  8
17DEG_15
  6
CONTINUOUS
 62
    4
 10
95.014966
 20
71.553945
 11
100.2765
 21
80.667201
  0
LINE
  8
17DEG_15
  6
CONTINUOUS
 62
    4
 10
95.014966
 20
71.553945
 11
95.273798
 21
72.519879
  0
LINE
  8
17DEG_15
  6
CONTINUOUS
 62
    4
 10
95.014966
 20
71.553945
 11
95.722085
 21
72.261055
  0
LINE
  8
17DEG_15
  6
CONTINUOUS
 62
    4
 10
100.2765
 20
80.667201
 11
107.74104
 21
80.667201
  0
LINE
  8
17DEG_15
  6
CONTINUOUS
 62
    4
 10
132.5406
 20
71.553945
 11
137.11166
 21
79.471245
  0
LINE
  8
17DEG_15
  6
CONTINUOUS
 62
    4
 10
137.11166
 20
79.471245
 11
144.61408
 21
79.471245
  0
LINE
  8
17DEG_15
  6
CONTINUOUS
 62
    4
 10
132.5406
 20
71.553945
 11
132.79943
 21
72.519879
  0
LINE
  8
17DEG_15
  6
CONTINUOUS
 62
    4
 10
132.5406
 20
71.553945
 11
133.24772
 21
72.261055
  0
LINE
  8
17DEG_15
  6
CONTINUOUS
 62
    4
 10
45.690145
 20
76.712024
 11
57.623133
 21
76.712024
  0
LINE
  8
17DEG_15
  6
CONTINUOUS
 62
    4
 10
57.623133
 20
76.712024
 11
62.265276
 21
68.236208
  0
LINE
  8
17DEG_15
  6
CONTINUOUS
 62
    4
 10
62.265276
 20
68.236208
 11
61.574281
 21
68.959061
  0
LINE
  8
17DEG_15
  6
CONTINUOUS
 62
    4
 10
62.265276
 20
68.236208
 11
62.028281
 21
69.207719
  0
LINE
  8
CATH_PAR
  6
CONTINUOUS
 62
    7
 10
0
 20
210.99613
 11
0
 21
0
  0
LINE
  8
CATH_PAR
  6
CONTINUOUS
 62
    7
 10
0
 20
0
 11
296.99999
 21
0
  0
LINE
  8
CATH_PAR
  6
CONTINUOUS
 62
    7
 10
296.99999
 20
0
 11
296.99999
 21
210.99613
  0
LINE
  8
CATH_PAR
  6
CONTINUOUS
 62
    7
 10
296.99999
 20
210.99613
 11
0
 21
210.99613
  0
LINE
  8
ADD_LINE
  6
DOT
 62
    7
 10
219.02316
 20
59.629343
 11
287.82625
 21
59.629343
  0
LINE
  8
ADD_LINE
  6
DOT
 62
    7
 10
228.77026
 20
69.376452
 11
228.77026
 21
6.3069503
  0
LINE
  8
ADD_LINE
  6
DOT
 62
    7
 10
219.02316
 20
54.629345
 11
287.82625
 21
54.629345
  0
LINE
  8
ADD_LINE
  6
DOT
 62
    7
 10
219.02316
 20
49.629347
 11
287.82625
 21
49.629347
  0
LINE
  8
ADD_LINE
  6
DOT
 62
    7
 10
219.02316
 20
44.629349
 11
287.82625
 21
44.629349
  0
LINE
  8
ADD_LINE
  6
DOT
 62
    7
 10
219.02316
 20
39.629351
 11
287.82625
 21
39.629351
  0
LINE
  8
ADD_LINE
  6
DOT
 62
    7
 10
219.02316
 20
34.629355
 11
287.82625
 21
34.629355
  0
LINE
  8
ADD_LINE
  6
DOT
 62
    7
 10
219.02316
 20
29.629355
 11
287.82625
 21
29.629355
  0
LINE
  8
ADD_LINE
  6
DOT
 62
    7
 10
219.02316
 20
24.629357
 11
287.82625
 21
24.629357
  0
LINE
  8
ADD_LINE
  6
DOT
 62
    7
 10
219.02316
 20
19.629359
 11
287.82625
 21
19.629359
  0
LINE
  8
ADD_LINE
  6
DOT
 62
    7
 10
219.02316
 20
14.629361
 11
287.82625
 21
14.629361
  0
LINE
  8
ADD_LINE
  6
DOT
 62
    7
 10
219.02316
 20
9.6293589
 11
287.82625
 21
9.6293589
  0
LINE
  8
17DEG_15
  6
CENTER1
 62
    7
 10
201.98263
 20
157.71717
 11
201.98263
 21
162.21718
  0
LINE
  8
17DEG_15
  6
CENTER1
 62
    7
 10
211.98261
 20
162.21718
 11
211.98261
 21
157.71717
  0
LINE
  8
17DEG_15
  6
CENTER1
 62
    7
 10
201.98263
 20
136.73881
 11
201.98263
 21
144.00034
  0
LINE
  8
17DEG_15
  6
CENTER1
 62
    7
 10
211.98263
 20
144.00034
 11
211.98263
 21
136.73881
  0
LINE
  8
17DEG_15
  6
CONTINUOUS
 62
    4
 10
186.78664
 20
157.71717
 11
186.78664
 21
162.21718
  0
LINE
  8
17DEG_15
  6
CONTINUOUS
 62
    4
 10
186.78664
 20
157.71717
 11
186.52783
 21
158.6831
  0
LINE
  8
17DEG_15
  6
CONTINUOUS
 62
    4
 10
186.78664
 20
157.71717
 11
187.04546
 21
158.6831
  0
LINE
  8
17DEG_15
  6
CONTINUOUS
 62
    4
 10
186.78664
 20
162.21718
 11
186.52783
 21
161.25125
  0
LINE
  8
17DEG_15
  6
CONTINUOUS
 62
    4
 10
186.78664
 20
162.21718
 11
187.04546
 21
161.25125
  0
LINE
  8
17DEG_15
  6
CONTINUOUS
 62
    4
 10
222.05688
 20
160.21716
 11
221.79806
 21
161.1831
  0
LINE
  8
17DEG_15
  6
CONTINUOUS
 62
    4
 10
222.05688
 20
160.21716
 11
222.31571
 21
161.1831
  0
LINE
  8
17DEG_15
  6
CONTINUOUS
 62
    4
 10
222.05688
 20
157.71717
 11
221.79806
 21
156.75124
  0
LINE
  8
17DEG_15
  6
CONTINUOUS
 62
    4
 10
222.05688
 20
157.71717
 11
222.31571
 21
156.75124
  0
LINE
  8
17DEG_15
  6
CONTINUOUS
 62
    4
 10
186.78664
 20
141.60566
 11
187.04546
 21
142.57159
  0
LINE
  8
17DEG_15
  6
CONTINUOUS
 62
    4
 10
186.78664
 20
138.60566
 11
186.52783
 21
137.63973
  0
LINE
  8
17DEG_15
  6
CONTINUOUS
 62
    4
 10
186.78664
 20
138.60566
 11
187.04546
 21
137.63973
  0
LINE
  8
17DEG_15
  6
CONTINUOUS
 62
    4
 10
186.78664
 20
141.60566
 11
186.52783
 21
142.57159
  0
LINE
  8
17DEG_15
  6
CONTINUOUS
 62
    4
 10
186.78664
 20
146.44339
 11
186.78664
 21
136.89291
  0
LINE
  8
17DEG_15
  6
CONTINUOUS
 62
    4
 10
222.05688
 20
165.42579
 11
222.05688
 21
155.0321
  0
LINE
  8
17DEG_15
  6
CONTINUOUS
 62
    4
 10
211.98261
 20
160.21716
 11
219.36048
 21
147.43835
  0
LINE
  8
17DEG_15
  6
CONTINUOUS
 62
    4
 10
211.98261
 20
160.21716
 11
212.68972
 21
159.51005
  0
LINE
  8
17DEG_15
  6
CONTINUOUS
 62
    4
 10
211.98261
 20
160.21716
 11
212.24143
 21
159.25125
  0
LINE
  8
17DEG_15
  6
CONTINUOUS
 62
    4
 10
219.36048
 20
147.43835
 11
232.65062
 21
147.43835
  0
LINE
  8
17DEG_15
  6
CONTINUOUS
 62
    7
 10
199.48262
 20
157.71717
 11
199.48262
 21
162.21718
  0
LINE
  8
17DEG_15
  6
CONTINUOUS
 62
    7
 10
199.48262
 20
162.21718
 11
214.48262
 21
162.21718
  0
LINE
  8
17DEG_15
  6
CONTINUOUS
 62
    7
 10
214.48262
 20
162.21718
 11
214.48262
 21
157.71717
  0
LINE
  8
17DEG_15
  6
CONTINUOUS
 62
    7
 10
214.48262
 20
157.71717
 11
199.48262
 21
157.71717
  0
LINE
  8
17DEG_15
  6
CENTER1
 62
    7
 10
214.48262
 20
160.21716
 11
199.48262
 21
160.21716
  0
LINE
  8
17DEG_15
  6
CONTINUOUS
 62
    4
 10
199.48262
 20
157.71717
 11
186.08663
 21
157.71717
  0
LINE
  8
17DEG_15
  6
CONTINUOUS
 62
    4
 10
199.48262
 20
162.21718
 11
186.08663
 21
162.21718
  0
LINE
  8
17DEG_15
  6
CONTINUOUS
 62
    4
 10
214.48262
 20
160.21716
 11
222.75689
 21
160.21716
  0
LINE
  8
17DEG_15
  6
CONTINUOUS
 62
    4
 10
214.48262
 20
157.71717
 11
222.75689
 21
157.71717
  0
LINE
  8
17DEG_15
  6
CONTINUOUS
 62
    7
 10
199.48262
 20
141.60566
 11
214.48264
 21
141.60566
  0
LINE
  8
17DEG_15
  6
CONTINUOUS
 62
    7
 10
214.48264
 20
141.60566
 11
214.48264
 21
138.60566
  0
LINE
  8
17DEG_15
  6
CONTINUOUS
 62
    7
 10
214.48264
 20
138.60566
 11
199.48262
 21
138.60566
  0
LINE
  8
17DEG_15
  6
CONTINUOUS
 62
    7
 10
199.48262
 20
138.60566
 11
199.48262
 21
141.60566
  0
LINE
  8
17DEG_15
  6
CONTINUOUS
 62
    4
 10
199.48262
 20
141.60566
 11
186.08663
 21
141.60566
  0
LINE
  8
17DEG_15
  6
CONTINUOUS
 62
    4
 10
199.48262
 20
138.60566
 11
186.08663
 21
138.60566
  0
LINE
  8
17DEG_15
  6
CONTINUOUS
 62
    4
 10
199.48262
 20
176.20518
 11
214.48262
 21
176.20518
  0
LINE
  8
17DEG_15
  6
CONTINUOUS
 62
    4
 10
199.48262
 20
162.21718
 11
199.48262
 21
176.90519
  0
LINE
  8
17DEG_15
  6
CONTINUOUS
 62
    4
 10
214.48262
 20
162.21718
 11
214.48262
 21
176.90519
  0
LINE
  8
17DEG_15
  6
CONTINUOUS
 62
    4
 10
199.48262
 20
176.20518
 11
200.44855
 21
176.46401
  0
LINE
  8
17DEG_15
  6
CONTINUOUS
 62
    4
 10
199.48262
 20
176.20518
 11
200.44855
 21
175.94636
  0
LINE
  8
17DEG_15
  6
CONTINUOUS
 62
    4
 10
214.48262
 20
176.20518
 11
213.51671
 21
176.46401
  0
LINE
  8
17DEG_15
  6
CONTINUOUS
 62
    4
 10
214.48262
 20
176.20518
 11
213.51671
 21
175.94636
  0
LINE
  8
17DEG_15
  6
CONTINUOUS
 62
    4
 10
201.98263
 20
162.21718
 11
201.98263
 21
169.77596
  0
LINE
  8
17DEG_15
  6
CONTINUOUS
 62
    4
 10
199.48262
 20
162.21718
 11
199.48262
 21
169.77596
  0
LINE
  8
17DEG_15
  6
CONTINUOUS
 62
    4
 10
201.98263
 20
169.07595
 11
202.94856
 21
169.33478
  0
LINE
  8
17DEG_15
  6
CONTINUOUS
 62
    4
 10
201.98263
 20
169.07595
 11
202.94856
 21
168.81713
  0
LINE
  8
17DEG_15
  6
CONTINUOUS
 62
    4
 10
199.48262
 20
169.07595
 11
198.51669
 21
169.33478
  0
LINE
  8
17DEG_15
  6
CONTINUOUS
 62
    4
 10
199.48262
 20
169.07595
 11
198.51669
 21
168.81713
  0
LINE
  8
17DEG_15
  6
CONTINUOUS
 62
    4
 10
201.98263
 20
169.07595
 11
211.98261
 21
169.07595
  0
LINE
  8
17DEG_15
  6
CONTINUOUS
 62
    4
 10
201.98263
 20
162.21718
 11
201.98263
 21
169.77596
  0
LINE
  8
17DEG_15
  6
CONTINUOUS
 62
    4
 10
211.98261
 20
162.21718
 11
211.98261
 21
169.77596
  0
LINE
  8
17DEG_15
  6
CONTINUOUS
 62
    4
 10
201.98263
 20
169.07595
 11
202.94856
 21
169.33478
  0
LINE
  8
17DEG_15
  6
CONTINUOUS
 62
    4
 10
201.98263
 20
169.07595
 11
202.94856
 21
168.81713
  0
LINE
  8
17DEG_15
  6
CONTINUOUS
 62
    4
 10
211.98261
 20
169.07595
 11
211.01668
 21
169.33478
  0
LINE
  8
17DEG_15
  6
CONTINUOUS
 62
    4
 10
211.98261
 20
169.07595
 11
211.01668
 21
168.81713
  0
LINE
  8
17DEG_15
  6
CONTINUOUS
 62
    4
 10
201.98263
 20
169.07595
 11
194.91001
 21
169.07595
  0
LINE
  8
17DEG_15
  6
CONTINUOUS
 62
    4
 10
142.22527
 20
68.236208
 11
148.20597
 21
78.595074
  0
LINE
  8
17DEG_15
  6
CONTINUOUS
 62
    7
 10
133.6479
 20
68.236208
 11
134.22524
 21
69.736205
  0
LINE
  8
17DEG_15
  6
CONTINUOUS
 62
    7
 10
133.6479
 20
68.236208
 11
134.22524
 21
66.73621
  0
LINE
  8
17DEG_15
  6
CONTINUOUS
 62
    7
 10
134.22524
 20
69.736205
 11
134.22524
 21
66.73621
  0
LINE
  8
17DEG_15
  6
CONTINUOUS
 62
    4
 10
142.22527
 20
68.236208
 11
142.48409
 21
69.202137
  0
LINE
  8
17DEG_15
  6
CONTINUOUS
 62
    4
 10
142.22527
 20
68.236208
 11
142.93237
 21
68.943313
  0
LINE
  8
17DEG_15
  6
CONTINUOUS
 62
    7
 10
142.22527
 20
69.736205
 11
134.22524
 21
69.736205
  0
LINE
  8
17DEG_15
  6
CONTINUOUS
 62
    7
 10
142.22527
 20
69.536208
 11
134.22524
 21
69.536208
  0
LINE
  8
17DEG_15
  6
CONTINUOUS
 62
    7
 10
142.22527
 20
66.936207
 11
134.22524
 21
66.936207
  0
LINE
  8
17DEG_15
  6
CONTINUOUS
 62
    7
 10
142.22527
 20
66.73621
 11
134.22524
 21
66.73621
  0
LINE
  8
17DEG_15
  6
CONTINUOUS
 62
    4
 10
148.20597
 20
78.595074
 11
158.09522
 21
78.595074
  0
LINE
  8
ADD_LINE
  6
DOT
 62
    7
 10
66.146018
 20
177.77683
 11
66.146018
 21
122.58214
  0
LINE
  8
_K_X__
  6
CONTINUOUS
 62
    7
 10
106.14601
 20
124.15294
 11
106.14601
 21
119.15294
  0
LINE
  8
ADD_LINE
  6
DOT
 62
    7
 10
59.575219
 20
119.15294
 11
129.22566
 21
119.15294
  0
LINE
  8
_K_X__
  6
CONTINUOUS
 62
    7
 10
66.146018
 20
119.15294
 11
106.14601
 21
119.15294
  0
LINE
  8
_K_X__
  6
CONTINUOUS
 62
    7
 10
98.146018
 20
124.15294
 11
106.14601
 21
124.15294
  0
LINE
  8
_K_X__
  6
CONTINUOUS
 62
    7
 10
66.146018
 20
119.15294
 11
66.146018
 21
129.15293
  0
LINE
  8
_K_X__
  6
CONTINUOUS
 62
    7
 10
66.146018
 20
129.15293
 11
88.234017
 21
129.15293
  0
LINE
  8
_K_X__
  6
CONTINUOUS
 62
    7
 10
88.234017
 20
129.15293
 11
98.146018
 21
134.87563
  0
LINE
  8
_K_X__
  6
CONTINUOUS
 62
    7
 10
98.146018
 20
124.15294
 11
98.146018
 21
134.87563
  0
LINE
  8
ADD_LINE
  6
DOT
 62
    7
 10
57.384957
 20
158.50249
 11
120.46459
 21
158.50249
  0
LINE
  8
_K_X__
  6
CONTINUOUS
 62
    7
 10
66.146018
 20
168.50249
 11
106.14601
 21
168.50249
  0
LINE
  8
_K_X__
  6
CONTINUOUS
 62
    7
 10
106.14601
 20
158.50249
 11
106.14601
 21
168.50249
  0
LINE
  8
_K_X__
  6
CONTINUOUS
 62
    7
 10
66.146018
 20
168.50249
 11
66.146018
 21
158.50249
  0
LINE
  8
_K_X__
  6
CONTINUOUS
 62
    7
 10
66.146018
 20
158.50249
 11
106.14601
 21
158.50249
  0
LINE
  8
_K_X__
  6
CONTINUOUS
 62
    7
 10
88.234017
 20
158.50249
 11
88.234017
 21
168.50249
  0
LINE
  8
_K_X__
  6
CONTINUOUS
 62
    7
 10
98.146018
 20
158.50249
 11
98.146018
 21
168.50249
  0
LINE
  8
_K_X__
  6
CENTER1
 62
    7
 10
58.699113
 20
163.50248
 11
113.8938
 21
163.50248
  0
LINE
  8
_K_X__
  6
CENTER1
 62
    7
 10
71.146016
 20
167.26356
 11
71.146016
 21
160.25471
  0
LINE
  8
_K_X__
  6
CENTER1
 62
    7
 10
81.146012
 20
167.26356
 11
81.146012
 21
160.25471
  0
LINE
  8
_K_X__
  6
CENTER1
 62
    7
 10
71.146016
 20
134.04675
 11
71.146016
 21
112.58214
  0
LINE
  8
_K_X__
  6
CENTER1
 62
    7
 10
101.14601
 20
167.26356
 11
101.14601
 21
160.25471
  0
LINE
  8
_K_X__
  6
CENTER1
 62
    7
 10
101.14601
 20
128.7901
 11
101.14601
 21
112.58214
  0
LINE
  8
_K_X__
  6
CENTER1
 62
    7
 10
81.146012
 20
134.4848
 11
81.146012
 21
112.58214
  0
LINE
  8
_K_X__
  6
CENTER1
 62
    7
 10
90.271665
 20
134.51442
 11
96.236119
 21
124.18368
  0
LINE
  8
_K_X__
  6
CENTER1
 62
    7
 10
92.08385
 20
160.01899
 11
92.08385
 21
167.00666
  0
LINE
  8
_K_X__
  6
CONTINUOUS
 62
    7
 10
93.382875
 20
132.12563
 11
96.88288
 21
126.06346
  0
LINE
  8
_K_X__
  6
CONTINUOUS
 62
    7
 10
94.284803
 20
124.56346
 11
96.88288
 21
126.06346
  0
LINE
  8
_K_X__
  6
CONTINUOUS
 62
    7
 10
90.784807
 20
130.62563
 11
94.284803
 21
124.56346
  0
LINE
  8
_K_X__
  6
CONTINUOUS
 62
    7
 10
96.083838
 20
124.44743
 11
96.88288
 21
126.06346
  0
LINE
  8
_K_X__
  6
CONTINUOUS
 62
    7
 10
96.083838
 20
124.44743
 11
94.284803
 21
124.56346
  0
LINE
  8
_K_X__
  6
CONTINUOUS
 62
    7
 10
93.29628
 20
132.07562
 11
96.796276
 21
126.01346
  0
LINE
  8
_K_X__
  6
CONTINUOUS
 62
    7
 10
90.871402
 20
130.67563
 11
94.371407
 21
124.61345
  0
LINE
  8
_K_X__
  6
CONTINUOUS
 62
    7
 10
68.146017
 20
129.15293
 11
68.146017
 21
125.15294
  0
LINE
  8
_K_X__
  6
CONTINUOUS
 62
    7
 10
74.146012
 20
125.15294
 11
68.146017
 21
125.15294
  0
LINE
  8
_K_X__
  6
CONTINUOUS
 62
    7
 10
74.146012
 20
129.15293
 11
74.146012
 21
125.15294
  0
LINE
  8
_K_X__
  6
CONTINUOUS
 62
    7
 10
69.446013
 20
125.15294
 11
69.446013
 21
119.15294
  0
LINE
  8
_K_X__
  6
CONTINUOUS
 62
    7
 10
72.846019
 20
125.15294
 11
72.846019
 21
119.15294
  0
LINE
  8
_K_X__
  6
CONTINUOUS
 62
    4
 10
66.146018
 20
101.56693
 11
106.14601
 21
101.56693
  0
LINE
  8
_K_X__
  6
CONTINUOUS
 62
    4
 10
66.146018
 20
119.15294
 11
66.146018
 21
100.86693
  0
LINE
  8
_K_X__
  6
CONTINUOUS
 62
    4
 10
106.14601
 20
119.15294
 11
106.14601
 21
100.86693
  0
LINE
  8
_K_X__
  6
CONTINUOUS
 62
    4
 10
66.146018
 20
101.56693
 11
67.111943
 21
101.82574
  0
LINE
  8
_K_X__
  6
CONTINUOUS
 62
    4
 10
66.146018
 20
101.56693
 11
67.111943
 21
101.30811
  0
LINE
  8
_K_X__
  6
CONTINUOUS
 62
    4
 10
106.14601
 20
101.56693
 11
105.18008
 21
101.82574
  0
LINE
  8
_K_X__
  6
CONTINUOUS
 62
    4
 10
106.14601
 20
101.56693
 11
105.18008
 21
101.30811
  0
LINE
  8
_K_X__
  6
CONTINUOUS
 62
    4
 10
66.146018
 20
109.31077
 11
71.146016
 21
109.31077
  0
LINE
  8
_K_X__
  6
CONTINUOUS
 62
    4
 10
66.146018
 20
119.15294
 11
66.146018
 21
108.61076
  0
LINE
  8
_K_X__
  6
CONTINUOUS
 62
    4
 10
71.146016
 20
119.15294
 11
71.146016
 21
108.61076
  0
LINE
  8
_K_X__
  6
CONTINUOUS
 62
    4
 10
66.146018
 20
109.31077
 11
67.111943
 21
109.56959
  0
LINE
  8
_K_X__
  6
CONTINUOUS
 62
    4
 10
66.146018
 20
109.31077
 11
67.111943
 21
109.05194
  0
LINE
  8
_K_X__
  6
CONTINUOUS
 62
    4
 10
71.146016
 20
109.31077
 11
70.180087
 21
109.56959
  0
LINE
  8
_K_X__
  6
CONTINUOUS
 62
    4
 10
71.146016
 20
109.31077
 11
70.180087
 21
109.05194
  0
LINE
  8
_K_X__
  6
CONTINUOUS
 62
    4
 10
71.146016
 20
109.31077
 11
81.146012
 21
109.31077
  0
LINE
  8
_K_X__
  6
CONTINUOUS
 62
    4
 10
81.146012
 20
119.15294
 11
81.146012
 21
108.61076
  0
LINE
  8
_K_X__
  6
CONTINUOUS
 62
    4
 10
71.146016
 20
109.31077
 11
72.111946
 21
109.56959
  0
LINE
  8
_K_X__
  6
CONTINUOUS
 62
    4
 10
71.146016
 20
109.31077
 11
72.111946
 21
109.05194
  0
LINE
  8
_K_X__
  6
CONTINUOUS
 62
    4
 10
81.146012
 20
109.31077
 11
80.180087
 21
109.56959
  0
LINE
  8
_K_X__
  6
CONTINUOUS
 62
    4
 10
81.146012
 20
109.31077
 11
80.180087
 21
109.05194
  0
LINE
  8
_K_X__
  6
CONTINUOUS
 62
    4
 10
101.14601
 20
109.31077
 11
106.14601
 21
109.31077
  0
LINE
  8
_K_X__
  6
CONTINUOUS
 62
    4
 10
101.14601
 20
119.15294
 11
101.14601
 21
108.61076
  0
LINE
  8
_K_X__
  6
CONTINUOUS
 62
    4
 10
106.14601
 20
119.15294
 11
106.14601
 21
108.61076
  0
LINE
  8
_K_X__
  6
CONTINUOUS
 62
    4
 10
101.14601
 20
109.31077
 11
102.11194
 21
109.56959
  0
LINE
  8
_K_X__
  6
CONTINUOUS
 62
    4
 10
101.14601
 20
109.31077
 11
102.11194
 21
109.05194
  0
LINE
  8
_K_X__
  6
CONTINUOUS
 62
    4
 10
106.14601
 20
109.31077
 11
105.18008
 21
109.56959
  0
LINE
  8
_K_X__
  6
CONTINUOUS
 62
    4
 10
106.14601
 20
109.31077
 11
105.18008
 21
109.05194
  0
LINE
  8
_K_X__
  6
CONTINUOUS
 62
    4
 10
66.146018
 20
178.59123
 11
88.234017
 21
178.59123
  0
LINE
  8
_K_X__
  6
CONTINUOUS
 62
    4
 10
66.146018
 20
168.50249
 11
66.146018
 21
179.29124
  0
LINE
  8
_K_X__
  6
CONTINUOUS
 62
    4
 10
88.234017
 20
168.50249
 11
88.234017
 21
179.29124
  0
LINE
  8
_K_X__
  6
CONTINUOUS
 62
    4
 10
66.146018
 20
178.59123
 11
67.111943
 21
178.85006
  0
LINE
  8
_K_X__
  6
CONTINUOUS
 62
    4
 10
66.146018
 20
178.59123
 11
67.111943
 21
178.33241
  0
LINE
  8
_K_X__
  6
CONTINUOUS
 62
    4
 10
88.234017
 20
178.59123
 11
87.268092
 21
178.85006
  0
LINE
  8
_K_X__
  6
CONTINUOUS
 62
    4
 10
88.234017
 20
178.59123
 11
87.268092
 21
178.33241
  0
LINE
  8
_K_X__
  6
CONTINUOUS
 62
    4
 10
98.146018
 20
178.59123
 11
106.14601
 21
178.59123
  0
LINE
  8
_K_X__
  6
CONTINUOUS
 62
    4
 10
98.146018
 20
168.50249
 11
98.146018
 21
179.29124
  0
LINE
  8
_K_X__
  6
CONTINUOUS
 62
    4
 10
106.14601
 20
168.50249
 11
106.14601
 21
179.29124
  0
LINE
  8
_K_X__
  6
CONTINUOUS
 62
    4
 10
98.146018
 20
178.59123
 11
99.111943
 21
178.85006
  0
LINE
  8
_K_X__
  6
CONTINUOUS
 62
    4
 10
98.146018
 20
178.59123
 11
99.111943
 21
178.33241
  0
LINE
  8
_K_X__
  6
CONTINUOUS
 62
    4
 10
106.14601
 20
178.59123
 11
105.18008
 21
178.85006
  0
LINE
  8
_K_X__
  6
CONTINUOUS
 62
    4
 10
106.14601
 20
178.59123
 11
105.18008
 21
178.33241
  0
LINE
  8
_K_X__
  6
CONTINUOUS
 62
    4
 10
49.239126
 20
119.15294
 11
49.239126
 21
129.15293
  0
LINE
  8
_K_X__
  6
CONTINUOUS
 62
    4
 10
66.146018
 20
119.15294
 11
48.539128
 21
119.15294
  0
LINE
  8
_K_X__
  6
CONTINUOUS
 62
    4
 10
66.146018
 20
129.15293
 11
48.539128
 21
129.15293
  0
LINE
  8
_K_X__
  6
CONTINUOUS
 62
    4
 10
49.239126
 20
119.15294
 11
48.980307
 21
120.11887
  0
LINE
  8
_K_X__
  6
CONTINUOUS
 62
    4
 10
49.239126
 20
119.15294
 11
49.497949
 21
120.11887
  0
LINE
  8
_K_X__
  6
CONTINUOUS
 62
    4
 10
49.239126
 20
129.15293
 11
48.980307
 21
128.18701
  0
LINE
  8
_K_X__
  6
CONTINUOUS
 62
    4
 10
49.239126
 20
129.15293
 11
49.497949
 21
128.18701
  0
LINE
  8
_K_X__
  6
CONTINUOUS
 62
    4
 10
49.239126
 20
158.50249
 11
49.239126
 21
168.50249
  0
LINE
  8
_K_X__
  6
CONTINUOUS
 62
    4
 10
66.146018
 20
158.50249
 11
48.539128
 21
158.50249
  0
LINE
  8
_K_X__
  6
CONTINUOUS
 62
    4
 10
66.146018
 20
168.50249
 11
48.539128
 21
168.50249
  0
LINE
  8
_K_X__
  6
CONTINUOUS
 62
    4
 10
49.239126
 20
158.50249
 11
48.980307
 21
159.46843
  0
LINE
  8
_K_X__
  6
CONTINUOUS
 62
    4
 10
49.239126
 20
158.50249
 11
49.497949
 21
159.46843
  0
LINE
  8
_K_X__
  6
CONTINUOUS
 62
    4
 10
49.239126
 20
168.50249
 11
48.980307
 21
167.53656
  0
LINE
  8
_K_X__
  6
CONTINUOUS
 62
    4
 10
49.239126
 20
168.50249
 11
49.497949
 21
167.53656
  0
LINE
  8
_K_X__
  6
CONTINUOUS
 62
    4
 10
122.93916
 20
119.15294
 11
122.93916
 21
124.15294
  0
LINE
  8
_K_X__
  6
CONTINUOUS
 62
    4
 10
106.14601
 20
119.15294
 11
123.63916
 21
119.15294
  0
LINE
  8
_K_X__
  6
CONTINUOUS
 62
    4
 10
106.14601
 20
124.15294
 11
123.63916
 21
124.15294
  0
LINE
  8
_K_X__
  6
CONTINUOUS
 62
    4
 10
122.93916
 20
119.15294
 11
122.68033
 21
120.11887
  0
LINE
  8
_K_X__
  6
CONTINUOUS
 62
    4
 10
122.93916
 20
119.15294
 11
123.19798
 21
120.11887
  0
LINE
  8
_K_X__
  6
CONTINUOUS
 62
    4
 10
122.93916
 20
124.15294
 11
122.68033
 21
123.18702
  0
LINE
  8
_K_X__
  6
CONTINUOUS
 62
    4
 10
122.93916
 20
124.15294
 11
123.19798
 21
123.18702
  0
LINE
  8
_K_X__
  6
CONTINUOUS
 62
    4
 10
122.93916
 20
124.15294
 11
122.93916
 21
134.87563
  0
LINE
  8
_K_X__
  6
CONTINUOUS
 62
    4
 10
106.14601
 20
124.15294
 11
123.63916
 21
124.15294
  0
LINE
  8
_K_X__
  6
CONTINUOUS
 62
    4
 10
122.93916
 20
124.15294
 11
122.68033
 21
125.11887
  0
LINE
  8
_K_X__
  6
CONTINUOUS
 62
    4
 10
122.93916
 20
124.15294
 11
123.19798
 21
125.11887
  0
LINE
  8
_K_X__
  6
CONTINUOUS
 62
    4
 10
122.93916
 20
134.87563
 11
122.68033
 21
133.90971
  0
LINE
  8
_K_X__
  6
CONTINUOUS
 62
    4
 10
122.93916
 20
134.87563
 11
123.19798
 21
133.90971
  0
LINE
  8
_K_X__
  6
CONTINUOUS
 62
    4
 10
99.707629
 20
134.87563
 11
123.63916
 21
134.87563
  0
LINE
  8
_K_X__
  6
CONTINUOUS
 62
    4
 10
112.36552
 20
129.15293
 11
112.10671
 21
130.11887
  0
LINE
  8
_K_X__
  6
CONTINUOUS
 62
    4
 10
112.36552
 20
129.15293
 11
112.62434
 21
130.11887
  0
LINE
  8
_K_X__
  6
CONTINUOUS
 62
    4
 10
109.13251
 20
141.21869
 11
109.83961
 21
140.51158
  0
LINE
  8
_K_X__
  6
CONTINUOUS
 62
    4
 10
109.13251
 20
141.21869
 11
109.39133
 21
140.25276
  0
LINE
  8
_K_X__
  6
CONTINUOUS
 62
    4
 10
100.97399
 20
129.15293
 11
113.06553
 21
129.15293
  0
LINE
  8
_K_X__
  6
CONTINUOUS
 62
    4
 10
99.267155
 20
135.52293
 11
109.73872
 21
141.5687
  0
LINE
  8
_K_X__
  6
CONTINUOUS
 62
    4
 10
87.493014
 20
139.32719
 11
93.555182
 21
142.82719
  0
LINE
  8
_K_X__
  6
CONTINUOUS
 62
    4
 10
92.08385
 20
131.37563
 11
87.143011
 21
139.93341
  0
LINE
  8
_K_X__
  6
CONTINUOUS
 62
    4
 10
98.146018
 20
134.87563
 11
93.205188
 21
143.4334
  0
LINE
  8
_K_X__
  6
CONTINUOUS
 62
    4
 10
87.493014
 20
139.32719
 11
88.200115
 21
140.0343
  0
LINE
  8
_K_X__
  6
CONTINUOUS
 62
    4
 10
87.493014
 20
139.32719
 11
88.458939
 21
139.58601
  0
LINE
  8
_K_X__
  6
CONTINUOUS
 62
    4
 10
93.555182
 20
142.82719
 11
92.589257
 21
142.56837
  0
LINE
  8
_K_X__
  6
CONTINUOUS
 62
    4
 10
93.555182
 20
142.82719
 11
92.848081
 21
142.12009
  0
LINE
  8
_K_X__
  6
CONTINUOUS
 62
    4
 10
71.146016
 20
129.15293
 11
67.158172
 21
136.06008
  0
LINE
  8
_K_X__
  6
CONTINUOUS
 62
    4
 10
67.158172
 20
136.06008
 11
47.87375
 21
136.06008
  0
LINE
  8
_K_X__
  6
CONTINUOUS
 62
    4
 10
69.467579
 20
132.06008
 11
47.87375
 21
132.06008
  0
LINE
  8
_K_X__
  6
CONTINUOUS
 62
    4
 10
71.146016
 20
129.15293
 11
70.43891
 21
129.86004
  0
LINE
  8
_K_X__
  6
CONTINUOUS
 62
    4
 10
71.146016
 20
129.15293
 11
70.887197
 21
130.11887
  0
LINE
  8
_K_X__
  6
CONTINUOUS
 62
    4
 10
81.146012
 20
129.15293
 11
73.891545
 21
141.71805
  0
LINE
  8
_K_X__
  6
CONTINUOUS
 62
    4
 10
73.891545
 20
141.71805
 11
60.520663
 21
141.71805
  0
LINE
  8
_K_X__
  6
CONTINUOUS
 62
    4
 10
81.146012
 20
129.15293
 11
80.438911
 21
129.86004
  0
LINE
  8
_K_X__
  6
CONTINUOUS
 62
    4
 10
81.146012
 20
129.15293
 11
80.887198
 21
130.11887
  0
LINE
  8
_K_X__
  6
CONTINUOUS
 62
    4
 10
101.14601
 20
163.50248
 11
106.47724
 21
154.26851
  0
LINE
  8
_K_X__
  6
CONTINUOUS
 62
    4
 10
106.47724
 20
154.26851
 11
121.71541
 21
154.26851
  0
LINE
  8
_K_X__
  6
CONTINUOUS
 62
    4
 10
101.14601
 20
163.50248
 11
101.85312
 21
162.79539
  0
LINE
  8
_K_X__
  6
CONTINUOUS
 62
    4
 10
101.14601
 20
163.50248
 11
101.40483
 21
162.53655
  0
LINE
  8
_K_X__
  6
CONTINUOUS
 62
    4
 10
100.06508
 20
149.67858
 11
117.6655
 21
149.67858
  0
LINE
  8
_K_X__
  6
CONTINUOUS
 62
    4
 10
92.08385
 20
163.50248
 11
102.37448
 21
145.67857
  0
LINE
  8
_K_X__
  6
CONTINUOUS
 62
    4
 10
102.37448
 20
145.67857
 11
117.6655
 21
145.67857
  0
LINE
  8
ADD_LINE
  6
DOT
 62
    4
 10
102.37448
 20
145.67857
 11
102.37448
 21
153.48553
  0
LINE
  8
_K_X__
  6
CONTINUOUS
 62
    4
 10
92.08385
 20
163.50248
 11
92.790951
 21
162.79539
  0
LINE
  8
_K_X__
  6
CONTINUOUS
 62
    4
 10
92.08385
 20
163.50248
 11
92.342664
 21
162.53655
  0
LINE
  8
_K_X__
  6
CONTINUOUS
 62
    7
 10
82.446009
 20
129.15293
 11
82.446009
 21
119.15294
  0
LINE
  8
_K_X__
  6
CONTINUOUS
 62
    7
 10
79.846016
 20
129.15293
 11
79.846016
 21
119.15294
  0
LINE
  8
_K_X__
  6
CONTINUOUS
 62
    7
 10
79.64601
 20
119.15294
 11
79.64601
 21
129.15293
  0
LINE
  8
_K_X__
  6
CONTINUOUS
 62
    7
 10
82.646014
 20
119.15294
 11
82.646014
 21
129.15293
  0
LINE
  8
_K_X__
  6
CONTINUOUS
 62
    7
 10
102.84601
 20
124.15294
 11
102.84601
 21
119.15294
  0
LINE
  8
_K_X__
  6
CONTINUOUS
 62
    7
 10
99.446014
 20
124.15294
 11
99.446014
 21
119.15294
  0
CIRCLE
  8
17DEG_15
  6
CONTINUOUS
 62
    7
 10
201.98263
 20
160.21716
 40
1.4999999
  0
CIRCLE
  8
17DEG_15
  6
CONTINUOUS
 62
    7
 10
211.98261
 20
160.21716
 40
1.4999999
  0
CIRCLE
  8
17DEG_15
  6
CONTINUOUS
 62
    7
 10
201.98263
 20
160.21716
 40
1.2999999
  0
CIRCLE
  8
17DEG_15
  6
CONTINUOUS
 62
    7
 10
211.98261
 20
160.21716
 40
1.2999999
  0
CIRCLE
  8
_K_X__
  6
CONTINUOUS
 62
    7
 10
71.146016
 20
163.50248
 40
1.7
  0
CIRCLE
  8
_K_X__
  6
CONTINUOUS
 62
    7
 10
101.14601
 20
163.50248
 40
1.7
  0
CIRCLE
  8
_K_X__
  6
CONTINUOUS
 62
    7
 10
81.146012
 20
163.50248
 40
1.4999999
  0
CIRCLE
  8
_K_X__
  6
CONTINUOUS
 62
    7
 10
81.146012
 20
163.50248
 40
1.3999999
  0
CIRCLE
  8
_K_X__
  6
CONTINUOUS
 62
    7
 10
71.146016
 20
163.50248
 40
2.9999999
  0
ARC
  8
_K_X__
  6
CONTINUOUS
 62
    4
 10
88.234017
 20
129.15293
 40
24.131508
 50
0
 51
30
  0
TEXT
  8
17DEG_15
 10
99.120271
 20
46.601767
 40
2.5
 41
1
 50
0
  1
79.96
  0
TEXT
  8
17DEG_15
 10
132.22527
 20
56.391062
 40
2.5
 41
1
 50
0
  1
15.0
  0
TEXT
  8
17DEG_15
 10
229.27026
 20
60.129344
 40
3
 41
1
 50
0
  1
ターミネータ取り付け金具２
  0
TEXT
  8
17DEG_15
 10
229.27026
 20
35.129354
 40
3
 41
1
 50
0
  1
材質:Al
  0
TEXT
  8
17DEG_15
 10
186.28665
 20
158.09218
 40
2.5
 41
1
 50
90
  1
4.5
  0
TEXT
  8
17DEG_15
 10
221.84455
 20
161.68801
 40
2.5
 41
1
 50
90
  1
2.5
  0
TEXT
  8
17DEG_15
 10
186.39567
 20
142.97436
 40
2.5
 41
1
 50
90
  1
3.0
  0
TEXT
  8
17DEG_15
 10
219.86045
 20
147.93834
 40
2.5
 41
1
 50
0
  1
2-M3トウシ
  0
TEXT
  8
17DEG_15
 10
205.73261
 20
176.70517
 40
2.5
 41
1
 50
0
  1
15
  0
TEXT
  8
17DEG_15
 10
195.41
 20
169.57594
 40
2.5
 41
1
 50
0
  1
2.5
  0
TEXT
  8
17DEG_15
 10
205.73261
 20
169.57594
 40
2.5
 41
1
 50
0
  1
10
  0
TEXT
  8
17DEG_15
 10
100.7765
 20
81.167193
 40
2.5
 41
1
 50
0
  1
φ5.0
  0
TEXT
  8
17DEG_15
 10
137.61165
 20
79.971237
 40
2.5
 41
1
 50
0
  1
φ4.8
  0
TEXT
  8
17DEG_15
 10
229.27026
 20
55.129346
 40
3
 41
1
 50
0
  1
97/10/30  Ｎ研　居波
  0
TEXT
  8
17DEG_15
 10
46.190137
 20
77.212016
 40
2.5
 41
1
 50
0
  1
M2深サ5
  0
TEXT
  8
17DEG_15
 10
148.70596
 20
79.095083
 40
2.5
 41
1
 50
0
  1
M3深サ8
  0
TEXT
  8
17DEG_15
 10
157.38892
 20
81.560135
 40
2.5
 41
1
 50
0
  1
*
  0
TEXT
  8
17DEG_15
 10
229.27026
 20
50.129348
 40
3
 41
1
 50
0
  1
* 98/02/16修正
  0
TEXT
  8
17DEG_15
 10
229.27026
 20
45.12935
 40
3
 41
1
 50
0
  1
** 98/3/31修正
  0
TEXT
  8
_K_X__
 10
274.72123
 20
199.30337
 40
3
 41
1
 50
0
  1
縮尺 1/1.0
  0
TEXT
  8
_K_X__
 10
83.021013
 20
102.06693
 40
2.5
 41
1
 50
0
  1
40.00
  0
TEXT
  8
_K_X__
 10
66.146018
 20
109.81077
 40
2.5
 41
1
 50
0
  1
5.00
  0
TEXT
  8
_K_X__
 10
73.021017
 20
109.81077
 40
2.5
 41
1
 50
0
  1
10.00
  0
TEXT
  8
_K_X__
 10
101.14601
 20
109.81077
 40
2.5
 41
1
 50
0
  1
5.00
  0
TEXT
  8
_K_X__
 10
74.065015
 20
179.09122
 40
2.5
 41
1
 50
0
  1
22.09
  0
TEXT
  8
_K_X__
 10
99.64602
 20
179.09122
 40
2.5
 41
1
 50
0
  1
8.00
  0
TEXT
  8
_K_X__
 10
48.73913
 20
121.02794
 40
2.5
 41
1
 50
90
  1
10.00
  0
TEXT
  8
_K_X__
 10
48.73913
 20
160.37749
 40
2.5
 41
1
 50
90
  1
10.00
  0
TEXT
  8
_K_X__
 10
122.43915
 20
119.15294
 40
2.5
 41
1
 50
90
  1
5.00
  0
TEXT
  8
_K_X__
 10
111.31272
 20
139.12533
 40
2.5
 41
1
 50
284.99987
  1
30ﾟ
  0
TEXT
  8
_K_X__
 10
88.109041
 20
140.26021
 40
2.5
 41
1
 50
29.999923
  1
7.00
  0
TEXT
  8
_K_X__
 10
122.23531
 20
125.08815
 40
2.5
 41
1
 50
90
  1
(10.72)
  0
TEXT
  8
_K_X__
 10
48.37375
 20
136.56008
 40
2.5
 41
1
 50
0
  1
φ3.4トウシ
  0
TEXT
  8
_K_X__
 10
48.37375
 20
132.56008
 40
2.5
 41
1
 50
0
  1
M3座グリ深サ4
  0
TEXT
  8
_K_X__
 10
61.020664
 20
142.21805
 40
2.5
 41
1
 50
0
  1
M3トウシ
  0
TEXT
  8
_K_X__
 10
106.97724
 20
154.76852
 40
2.5
 41
1
 50
0
  1
φ3.4トウシ
  0
TEXT
  8
_K_X__
 10
48.169764
 20
181.59615
 40
3
 41
1
 50
0
  1
**
  0
TEXT
  8
_K_X__
 10
102.87448
 20
150.17857
 40
2.5
 41
1
 50
0
  1
M3深サ5
  0
TEXT
  8
_K_X__
 10
102.87448
 20
146.17857
 40
2.5
 41
1
 50
0
  1
下穴深サ7
  0
TEXT
  8
17DEG_15
 10
45.110028
 20
177.92447
 40
3
 41
1
 50
0
  1
Ａ
  0
TEXT
  8
17DEG_15
 10
169.79342
 20
173.98219
 40
3
 41
1
 50
0
  1
Ｃ
  0
TEXT
  8
17DEG_15
 10
29.741313
 20
80.196911
 40
3
 41
1
 50
0
  1
Ｂ
  0
TEXT
  8
17DEG_15
 10
229.27026
 20
25.129355
 40
3
 41
1
 50
0
  1
個数:Ａ  32 **
  0
TEXT
  8
17DEG_15
 10
229.27026
 20
20.129357
 40
3
 41
1
 50
0
  1
     Ｂ  64
  0
TEXT
  8
17DEG_15
 10
229.27026
 20
15.129359
 40
3
 41
1
 50
0
  1
     Ｃ  100
  0
ENDSEC
  0
EOF
