  0
SECTION
  2
HEADER
  9
$EXTMIN
 10
0
 20
0
  9
$EXTMAX
 10
297
 20
210
  0
ENDSEC
  0
SECTION
  2
TABLES
  0
TABLE
  2
LTYPE
 70
     9
  0
LTYPE
  2
CONTINUOUS
 70
    64
  3
実線
 72
    65
 73
     0
 40
0.0
  0
LTYPE
  2
DASHED1
 70
    64
  3
--  --  --  --  --  --  --  --  
 72
    65
 73
     2
 40
2.5
 49
1.25
 49
-1.25
  0
LTYPE
  2
DASHED2
 70
    64
  3
----    ----    ----    ----    
 72
    65
 73
     2
 40
5.0
 49
2.5
 49
-2.5
  0
LTYPE
  2
DASHED3
 70
    64
  3
------  ------  ------  ------  
 72
    65
 73
     2
 40
5.0
 49
3.75
 49
-1.25
  0
LTYPE
  2
CENTER1
 70
    64
  3
----- - ----- - ----- - ----- - 
 72
    65
 73
     4
 40
10.0
 49
6.25
 49
-1.25
 49
1.25
 49
-1.25
  0
LTYPE
  2
CENTER2
 70
    64
  3
----------  --  ----------  --  
 72
    65
 73
     4
 40
20.0
 49
12.5
 49
-2.5
 49
2.5
 49
-2.5
  0
LTYPE
  2
PHANTOM1
 70
    64
  3
--- - - --- - - --- - - --- - - 
 72
    65
 73
     6
 40
10.0
 49
3.25
 49
-1.25
 49
1.25
 49
-1.25
 49
1.25
 49
-1.25
  0
LTYPE
  2
PHANTOM2
 70
    64
  3
--------  -  -  --------  -  -  
 72
    65
 73
     6
 40
20.0
 49
10.0
 49
-2.5
 49
1.25
 49
-2.5
 49
1.25
 49
-2.5
  0
LTYPE
  2
DOT
 70
    64
  3
-   -   -   -   -   -   -   -   
 72
    65
 73
     2
 40
2.5
 49
0.625
 49
-1.875
  0
ENDTAB
  0
TABLE
  2
STYLE
 70
    1
  0
STYLE
  2
STANDARD
 70
    64
 40
0.0
 41
1.0
 42
0.0
 50
0.0
 71
     0
  3
TXT
  4
BIGFONT
  0
ENDTAB
  0
TABLE
  2
LAYER
 70
    5
  0
LAYER
  2
0-0
 70
   64
 62
    7
  6
CONTINUOUS
  0
LAYER
  2
0-1
 70
   64
 62
    7
  6
CONTINUOUS
  0
LAYER
  2
0-2
 70
   64
 62
    7
  6
CONTINUOUS
  0
LAYER
  2
0-f
 70
   64
 62
    7
  6
CONTINUOUS
  0
LAYER
  2
ADD_LINE
 70
   64
 62
    7
  6
CONTINUOUS
  0
ENDTAB
  0
ENDSEC
  0
SECTION
  2
ENTITIES
  0
LINE
  8
0-f
  6
CONTINUOUS
 62
    7
 10
0
 20
210.99613
 11
0
 21
0
  0
LINE
  8
0-f
  6
CONTINUOUS
 62
    7
 10
0
 20
0
 11
296.99999
 21
0
  0
LINE
  8
0-f
  6
CONTINUOUS
 62
    7
 10
296.99999
 20
0
 11
296.99999
 21
210.99613
  0
LINE
  8
0-f
  6
CONTINUOUS
 62
    7
 10
296.99999
 20
210.99613
 11
0
 21
210.99613
  0
LINE
  8
0-0
  6
CONTINUOUS
 62
    7
 10
95.690274
 20
47.984802
 11
95.690274
 21
42.984795
  0
LINE
  8
0-0
  6
CONTINUOUS
 62
    7
 10
73.690271
 20
47.984802
 11
73.690271
 21
42.984795
  0
LINE
  8
0-0
  6
CONTINUOUS
 62
    7
 10
95.690274
 20
47.984802
 11
73.690271
 21
47.984802
  0
LINE
  8
0-0
  6
CONTINUOUS
 62
    7
 10
95.690274
 20
42.984795
 11
73.690271
 21
42.984795
  0
LINE
  8
0-0
  6
CONTINUOUS
 62
    7
 10
45.690268
 20
47.884799
 11
73.690271
 21
47.884799
  0
LINE
  8
0-0
  6
CONTINUOUS
 62
    7
 10
45.690268
 20
47.884799
 11
45.690268
 21
43.084798
  0
LINE
  8
0-0
  6
CONTINUOUS
 62
    7
 10
45.690268
 20
43.084798
 11
73.690271
 21
43.084798
  0
LINE
  8
0-0
  6
CONTINUOUS
 62
    7
 10
51.690272
 20
46.984797
 11
51.690272
 21
43.984797
  0
LINE
  8
0-0
  6
CONTINUOUS
 62
    7
 10
52.556299
 20
45.484799
 11
51.690272
 21
43.984797
  0
LINE
  8
0-0
  6
CONTINUOUS
 62
    7
 10
51.690272
 20
46.984797
 11
52.556299
 21
45.484799
  0
LINE
  8
0-0
  6
CONTINUOUS
 62
    7
 10
95.690274
 20
46.284799
 11
89.690275
 21
46.284799
  0
LINE
  8
0-0
  6
CONTINUOUS
 62
    7
 10
95.690274
 20
44.684799
 11
89.690275
 21
44.684799
  0
LINE
  8
0-0
  6
CONTINUOUS
 62
    7
 10
95.690274
 20
46.484796
 11
89.690275
 21
46.484796
  0
LINE
  8
0-0
  6
CONTINUOUS
 62
    7
 10
89.690275
 20
46.484796
 11
89.690275
 21
44.484802
  0
LINE
  8
0-0
  6
CONTINUOUS
 62
    7
 10
95.690274
 20
44.484802
 11
89.690275
 21
44.484802
  0
LINE
  8
0-0
  6
CONTINUOUS
 62
    7
 10
89.690275
 20
46.484796
 11
89.112927
 21
45.484799
  0
LINE
  8
0-0
  6
CONTINUOUS
 62
    7
 10
89.690275
 20
44.484802
 11
89.112927
 21
45.484799
  0
LINE
  8
0-0
  6
CENTER1
 62
    7
 10
103.57523
 20
45.484799
 11
36.37457
 21
45.484799
  0
LINE
  8
ADD_LINE
  6
DOT
 62
    7
 10
43.805307
 20
119.07771
 11
43.805307
 21
181.28125
  0
LINE
  8
ADD_LINE
  6
DOT
 62
    7
 10
35.044248
 20
160.69276
 11
122.65487
 21
160.69276
  0
LINE
  8
ADD_LINE
  6
DOT
 62
    7
 10
38.110618
 20
135.57394
 11
51.690263
 21
135.57394
  0
LINE
  8
0-0
  6
CONTINUOUS
 62
    7
 10
75.805311
 20
122.70395
 11
75.805311
 21
127.70395
  0
LINE
  8
ADD_LINE
  6
DOT
 62
    7
 10
113.80531
 20
122.70395
 11
113.80531
 21
181.28125
  0
LINE
  8
ADD_LINE
  6
DOT
 62
    7
 10
56.455309
 20
174.71046
 11
56.455309
 21
129.15293
  0
LINE
  8
0-0
  6
CONTINUOUS
 62
    7
 10
56.455309
 20
131.70394
 11
113.80531
 21
131.70394
  0
LINE
  8
0-0
  6
CONTINUOUS
 62
    7
 10
43.805307
 20
127.70395
 11
43.805307
 21
135.57394
  0
LINE
  8
0-0
  6
CONTINUOUS
 62
    7
 10
43.805307
 20
135.57394
 11
56.455309
 21
131.70394
  0
LINE
  8
0-0
  6
CONTINUOUS
 62
    7
 10
113.80531
 20
131.70394
 11
113.80531
 21
122.70395
  0
LINE
  8
0-0
  6
CONTINUOUS
 62
    7
 10
56.455309
 20
170.69276
 11
56.455309
 21
160.69276
  0
LINE
  8
0-0
  6
CONTINUOUS
 62
    7
 10
43.805307
 20
170.69276
 11
113.80531
 21
170.69276
  0
LINE
  8
0-0
  6
CONTINUOUS
 62
    7
 10
113.80531
 20
170.69276
 11
113.80531
 21
160.69276
  0
LINE
  8
0-0
  6
CONTINUOUS
 62
    7
 10
113.80531
 20
160.69276
 11
43.805307
 21
160.69276
  0
LINE
  8
0-0
  6
CONTINUOUS
 62
    7
 10
43.805307
 20
160.69276
 11
43.805307
 21
170.69276
  0
LINE
  8
0-0
  6
CENTER1
 62
    7
 10
40.300884
 20
165.69275
 11
119.58849
 21
165.69275
  0
LINE
  8
0-0
  6
CENTER1
 62
    7
 10
78.805306
 20
169.30393
 11
78.805306
 21
162.19428
  0
LINE
  8
0-0
  6
CENTER1
 62
    7
 10
93.805309
 20
169.13464
 11
93.805309
 21
162.53282
  0
LINE
  8
0-0
  6
CENTER1
 62
    7
 10
108.8053
 20
168.96537
 11
108.8053
 21
162.19428
  0
LINE
  8
0-0
  6
CENTER1
 62
    7
 10
108.8053
 20
135.95633
 11
108.8053
 21
118.2016
  0
LINE
  8
0-0
  6
CENTER1
 62
    7
 10
93.805309
 20
135.95633
 11
93.805309
 21
118.2016
  0
LINE
  8
0-0
  6
CENTER1
 62
    7
 10
78.805306
 20
135.95633
 11
78.805306
 21
118.2016
  0
LINE
  8
0-0
  6
CONTINUOUS
 62
    7
 10
105.8053
 20
131.70394
 11
105.8053
 21
127.70394
  0
LINE
  8
0-0
  6
CONTINUOUS
 62
    7
 10
111.8053
 20
131.70394
 11
111.8053
 21
127.70394
  0
LINE
  8
0-0
  6
CONTINUOUS
 62
    7
 10
110.50531
 20
122.70395
 11
110.50531
 21
127.70394
  0
LINE
  8
0-0
  6
CONTINUOUS
 62
    7
 10
105.8053
 20
127.70394
 11
111.8053
 21
127.70394
  0
LINE
  8
0-0
  6
CONTINUOUS
 62
    7
 10
107.1053
 20
122.70395
 11
107.1053
 21
127.70394
  0
LINE
  8
0-0
  6
CENTER1
 62
    7
 10
49.805307
 20
162.19428
 11
49.805307
 21
169.64247
  0
LINE
  8
0-0
  6
CENTER1
 62
    7
 10
51.494942
 20
139.26492
 11
47.329664
 21
125.64091
  0
LINE
  8
0-0
  6
CONTINUOUS
 62
    7
 10
43.805307
 20
127.70395
 11
75.805311
 21
127.70395
  0
LINE
  8
0-0
  6
CONTINUOUS
 62
    7
 10
51.239767
 20
133.29981
 11
49.528933
 21
127.70395
  0
LINE
  8
0-0
  6
CONTINUOUS
 62
    7
 10
51.048506
 20
133.35829
 11
49.319803
 21
127.70395
  0
LINE
  8
0-0
  6
CONTINUOUS
 62
    7
 10
48.562111
 20
134.11846
 11
46.601001
 21
127.70395
  0
LINE
  8
0-0
  6
CONTINUOUS
 62
    7
 10
48.37085
 20
134.17694
 11
46.391862
 21
127.70395
  0
LINE
  8
0-0
  6
CONTINUOUS
 62
    7
 10
45.690268
 20
46.984797
 11
51.690272
 21
46.984797
  0
LINE
  8
0-0
  6
CONTINUOUS
 62
    7
 10
45.690268
 20
46.7848
 11
51.690272
 21
46.7848
  0
LINE
  8
0-0
  6
CONTINUOUS
 62
    7
 10
45.690268
 20
44.184794
 11
51.690272
 21
44.184794
  0
LINE
  8
0-0
  6
CONTINUOUS
 62
    7
 10
45.690268
 20
43.984797
 11
51.690272
 21
43.984797
  0
LINE
  8
0-0
  6
CONTINUOUS
 62
    7
 10
211.94247
 20
135.90515
 11
211.94247
 21
130.90514
  0
LINE
  8
0-0
  6
CONTINUOUS
 62
    7
 10
221.94247
 20
137.57315
 11
221.94247
 21
130.90514
  0
LINE
  8
0-0
  6
CONTINUOUS
 62
    7
 10
201.94247
 20
135.90515
 11
211.94247
 21
135.90515
  0
LINE
  8
0-0
  6
CONTINUOUS
 62
    7
 10
201.94247
 20
135.90515
 11
201.94247
 21
143.68776
  0
LINE
  8
0-0
  6
CONTINUOUS
 62
    7
 10
211.94247
 20
130.90514
 11
221.94247
 21
130.90514
  0
LINE
  8
0-0
  6
CONTINUOUS
 62
    7
 10
221.94247
 20
137.57315
 11
201.94247
 21
143.68776
  0
LINE
  8
0-0
  6
CENTER1
 62
    7
 10
208.44482
 20
133.40515
 11
225.00884
 21
133.40515
  0
LINE
  8
0-0
  6
CENTER1
 62
    7
 10
207.63804
 20
144.43418
 11
204.39885
 21
133.83928
  0
LINE
  8
0-0
  6
CONTINUOUS
 62
    7
 10
236.55262
 20
137.57315
 11
248.55264
 21
137.57315
  0
LINE
  8
0-0
  6
CONTINUOUS
 62
    7
 10
236.55262
 20
130.90514
 11
248.55264
 21
130.90514
  0
LINE
  8
ADD_LINE
  6
DOT
 62
    7
 10
236.55262
 20
158.13434
 11
236.55262
 21
123.46162
  0
LINE
  8
0-0
  6
CONTINUOUS
 62
    7
 10
236.55262
 20
130.90514
 11
236.55262
 21
143.68776
  0
LINE
  8
0-0
  6
CONTINUOUS
 62
    7
 10
236.55262
 20
143.68776
 11
248.55264
 21
143.68776
  0
LINE
  8
0-0
  6
CONTINUOUS
 62
    7
 10
248.55264
 20
143.68776
 11
248.55264
 21
130.90514
  0
LINE
  8
0-0
  6
CENTER1
 62
    7
 10
240.06245
 20
142.15911
 11
245.27401
 21
142.15911
  0
LINE
  8
0-0
  6
CENTER1
 62
    7
 10
242.55265
 20
144.86322
 11
242.55265
 21
128.98041
  0
LINE
  8
0-0
  6
CENTER1
 62
    7
 10
238.67065
 20
131.62811
 11
238.67065
 21
135.38407
  0
LINE
  8
0-0
  6
CENTER1
 62
    7
 10
246.43465
 20
131.62811
 11
246.43465
 21
135.38407
  0
LINE
  8
0-0
  6
CENTER1
 62
    7
 10
237.0958
 20
133.40515
 11
247.95767
 21
133.40515
  0
LINE
  8
0-1
  6
CONTINUOUS
 62
    4
 10
45.690268
 20
28.254745
 11
95.690274
 21
28.254745
  0
LINE
  8
0-1
  6
CONTINUOUS
 62
    4
 10
45.690268
 20
43.084798
 11
45.690268
 21
27.554747
  0
LINE
  8
0-1
  6
CONTINUOUS
 62
    4
 10
95.690274
 20
43.084798
 11
95.690274
 21
27.554747
  0
LINE
  8
0-1
  6
CONTINUOUS
 62
    4
 10
45.690268
 20
28.254745
 11
46.656197
 21
28.513566
  0
LINE
  8
0-1
  6
CONTINUOUS
 62
    4
 10
45.690268
 20
28.254745
 11
46.656197
 21
27.995925
  0
LINE
  8
0-1
  6
CONTINUOUS
 62
    4
 10
95.690274
 20
28.254745
 11
94.724341
 21
28.513566
  0
LINE
  8
0-1
  6
CONTINUOUS
 62
    4
 10
95.690274
 20
28.254745
 11
94.724341
 21
27.995925
  0
LINE
  8
0-1
  6
CONTINUOUS
 62
    4
 10
45.690268
 20
60.814271
 11
73.690271
 21
60.814271
  0
LINE
  8
0-1
  6
CONTINUOUS
 62
    4
 10
45.690268
 20
47.984802
 11
45.690268
 21
61.514269
  0
LINE
  8
0-1
  6
CONTINUOUS
 62
    4
 10
73.690271
 20
47.984802
 11
73.690271
 21
61.514269
  0
LINE
  8
0-1
  6
CONTINUOUS
 62
    4
 10
45.690268
 20
60.814271
 11
46.656197
 21
61.073086
  0
LINE
  8
0-1
  6
CONTINUOUS
 62
    4
 10
45.690268
 20
60.814271
 11
46.656197
 21
60.555452
  0
LINE
  8
0-1
  6
CONTINUOUS
 62
    4
 10
73.690271
 20
60.814271
 11
72.724342
 21
61.073086
  0
LINE
  8
0-1
  6
CONTINUOUS
 62
    4
 10
73.690271
 20
60.814271
 11
72.724342
 21
60.555452
  0
LINE
  8
0-1
  6
CONTINUOUS
 62
    4
 10
83.313073
 20
48.703715
 11
88.065279
 21
56.934785
  0
LINE
  8
0-1
  6
CONTINUOUS
 62
    4
 10
88.065279
 20
56.934785
 11
96.416308
 21
56.934785
  0
LINE
  8
0-1
  6
CONTINUOUS
 62
    4
 10
83.313073
 20
48.703715
 11
83.571887
 21
49.669644
  0
LINE
  8
0-1
  6
CONTINUOUS
 62
    4
 10
83.313073
 20
48.703715
 11
84.020174
 21
49.41082
  0
LINE
  8
0-1
  6
CONTINUOUS
 62
    4
 10
48.371143
 20
48.703715
 11
43.932641
 21
56.391421
  0
LINE
  8
0-1
  6
CONTINUOUS
 62
    4
 10
43.932641
 20
56.391421
 11
35.863522
 21
56.391421
  0
LINE
  8
0-1
  6
CONTINUOUS
 62
    4
 10
48.371143
 20
48.703715
 11
47.664042
 21
49.41082
  0
LINE
  8
0-1
  6
CONTINUOUS
 62
    4
 10
48.371143
 20
48.703715
 11
48.112329
 21
49.669644
  0
LINE
  8
0-1
  6
CONTINUOUS
 62
    4
 10
45.690268
 20
45.484799
 11
37.8298
 21
31.870071
  0
LINE
  8
0-1
  6
CONTINUOUS
 62
    4
 10
37.8298
 20
31.870071
 11
25.142704
 21
31.870071
  0
LINE
  8
0-1
  6
CONTINUOUS
 62
    4
 10
45.690268
 20
45.484799
 11
45.431453
 21
44.51887
  0
LINE
  8
0-1
  6
CONTINUOUS
 62
    4
 10
45.690268
 20
45.484799
 11
44.983167
 21
44.777693
  0
LINE
  8
0-1
  6
CONTINUOUS
 62
    4
 10
95.690274
 20
45.484799
 11
102.30551
 21
34.026858
  0
LINE
  8
0-1
  6
CONTINUOUS
 62
    4
 10
102.30551
 20
34.026858
 11
112.8946
 21
34.026858
  0
LINE
  8
0-1
  6
CONTINUOUS
 62
    4
 10
95.690274
 20
45.484799
 11
96.397376
 21
44.777693
  0
LINE
  8
0-1
  6
CONTINUOUS
 62
    4
 10
95.690274
 20
45.484799
 11
95.94908
 21
44.51887
  0
LINE
  8
0-1
  6
CONTINUOUS
 62
    4
 10
43.805307
 20
98.148774
 11
113.80531
 21
98.148774
  0
LINE
  8
0-1
  6
CONTINUOUS
 62
    4
 10
113.80531
 20
122.70395
 11
113.80531
 21
97.448776
  0
LINE
  8
0-1
  6
CONTINUOUS
 62
    4
 10
43.805307
 20
98.148774
 11
44.771232
 21
98.407588
  0
LINE
  8
0-1
  6
CONTINUOUS
 62
    4
 10
43.805307
 20
98.148774
 11
44.771232
 21
97.88995
  0
LINE
  8
0-1
  6
CONTINUOUS
 62
    4
 10
113.80531
 20
98.148774
 11
112.83937
 21
98.407588
  0
LINE
  8
0-1
  6
CONTINUOUS
 62
    4
 10
113.80531
 20
98.148774
 11
112.83937
 21
97.88995
  0
LINE
  8
0-1
  6
CONTINUOUS
 62
    4
 10
75.805311
 20
108.47252
 11
113.80529
 21
108.47252
  0
LINE
  8
0-1
  6
CONTINUOUS
 62
    4
 10
113.80529
 20
122.70395
 11
113.80529
 21
107.77252
  0
LINE
  8
0-1
  6
CONTINUOUS
 62
    4
 10
75.805311
 20
108.47252
 11
76.771236
 21
108.73134
  0
LINE
  8
0-1
  6
CONTINUOUS
 62
    4
 10
75.805311
 20
108.47252
 11
76.771236
 21
108.2137
  0
LINE
  8
0-1
  6
CONTINUOUS
 62
    4
 10
113.80529
 20
108.47252
 11
112.83936
 21
108.73134
  0
LINE
  8
0-1
  6
CONTINUOUS
 62
    4
 10
113.80529
 20
108.47252
 11
112.83936
 21
108.2137
  0
LINE
  8
0-1
  6
CONTINUOUS
 62
    4
 10
43.805307
 20
127.70395
 11
43.805307
 21
97.448776
  0
LINE
  8
0-1
  6
CONTINUOUS
 62
    4
 10
43.805307
 20
146.8557
 11
49.805307
 21
146.8557
  0
LINE
  8
0-1
  6
CONTINUOUS
 62
    4
 10
43.805307
 20
133.73838
 11
43.805307
 21
147.55571
  0
LINE
  8
0-1
  6
CONTINUOUS
 62
    4
 10
49.805307
 20
133.73838
 11
49.805307
 21
147.55571
  0
LINE
  8
0-1
  6
CONTINUOUS
 62
    4
 10
43.805307
 20
146.8557
 11
44.771232
 21
147.11452
  0
LINE
  8
0-1
  6
CONTINUOUS
 62
    4
 10
43.805307
 20
146.8557
 11
44.771232
 21
146.59687
  0
LINE
  8
0-1
  6
CONTINUOUS
 62
    4
 10
49.805307
 20
146.8557
 11
48.839386
 21
147.11452
  0
LINE
  8
0-1
  6
CONTINUOUS
 62
    4
 10
49.805307
 20
146.8557
 11
48.839386
 21
146.59687
  0
LINE
  8
0-1
  6
CONTINUOUS
 62
    4
 10
78.805306
 20
183.91533
 11
108.8053
 21
183.91533
  0
LINE
  8
0-1
  6
CONTINUOUS
 62
    4
 10
78.805306
 20
170.69276
 11
78.805306
 21
184.61532
  0
LINE
  8
0-1
  6
CONTINUOUS
 62
    4
 10
108.8053
 20
170.69276
 11
108.8053
 21
184.61532
  0
LINE
  8
0-1
  6
CONTINUOUS
 62
    4
 10
78.805306
 20
183.91533
 11
79.77124
 21
184.17415
  0
LINE
  8
0-1
  6
CONTINUOUS
 62
    4
 10
78.805306
 20
183.91533
 11
79.77124
 21
183.6565
  0
LINE
  8
0-1
  6
CONTINUOUS
 62
    4
 10
108.8053
 20
183.91533
 11
107.83937
 21
184.17415
  0
LINE
  8
0-1
  6
CONTINUOUS
 62
    4
 10
108.8053
 20
183.91533
 11
107.83937
 21
183.6565
  0
LINE
  8
0-1
  6
CONTINUOUS
 62
    4
 10
108.8053
 20
183.91533
 11
113.80531
 21
183.91533
  0
LINE
  8
0-1
  6
CONTINUOUS
 62
    4
 10
113.80531
 20
170.69276
 11
113.80531
 21
184.61532
  0
LINE
  8
0-1
  6
CONTINUOUS
 62
    4
 10
108.8053
 20
183.91533
 11
109.77123
 21
184.17415
  0
LINE
  8
0-1
  6
CONTINUOUS
 62
    4
 10
108.8053
 20
183.91533
 11
109.77123
 21
183.6565
  0
LINE
  8
0-1
  6
CONTINUOUS
 62
    4
 10
113.80531
 20
183.91533
 11
112.83937
 21
184.17415
  0
LINE
  8
0-1
  6
CONTINUOUS
 62
    4
 10
113.80531
 20
183.91533
 11
112.83937
 21
183.6565
  0
LINE
  8
0-1
  6
CONTINUOUS
 62
    4
 10
93.805309
 20
177.82696
 11
113.80531
 21
177.82696
  0
LINE
  8
0-1
  6
CONTINUOUS
 62
    4
 10
93.805309
 20
170.69276
 11
93.805309
 21
178.52696
  0
LINE
  8
0-1
  6
CONTINUOUS
 62
    4
 10
113.80531
 20
170.69276
 11
113.80531
 21
178.52696
  0
LINE
  8
0-1
  6
CONTINUOUS
 62
    4
 10
93.805309
 20
177.82696
 11
94.771243
 21
178.08578
  0
LINE
  8
0-1
  6
CONTINUOUS
 62
    4
 10
93.805309
 20
177.82696
 11
94.771243
 21
177.56813
  0
LINE
  8
0-1
  6
CONTINUOUS
 62
    4
 10
113.80531
 20
177.82696
 11
112.83937
 21
178.08578
  0
LINE
  8
0-1
  6
CONTINUOUS
 62
    4
 10
113.80531
 20
177.82696
 11
112.83937
 21
177.56813
  0
LINE
  8
0-1
  6
CONTINUOUS
 62
    4
 10
56.455309
 20
193.70964
 11
113.80531
 21
193.70964
  0
LINE
  8
0-1
  6
CONTINUOUS
 62
    4
 10
56.455309
 20
170.69276
 11
56.455309
 21
194.40965
  0
LINE
  8
0-1
  6
CONTINUOUS
 62
    4
 10
113.80531
 20
170.69276
 11
113.80531
 21
194.40965
  0
LINE
  8
0-1
  6
CONTINUOUS
 62
    4
 10
56.455309
 20
193.70964
 11
57.421238
 21
193.96846
  0
LINE
  8
0-1
  6
CONTINUOUS
 62
    4
 10
56.455309
 20
193.70964
 11
57.421238
 21
193.45082
  0
LINE
  8
0-1
  6
CONTINUOUS
 62
    4
 10
113.80531
 20
193.70964
 11
112.83937
 21
193.96846
  0
LINE
  8
0-1
  6
CONTINUOUS
 62
    4
 10
113.80531
 20
193.70964
 11
112.83937
 21
193.45082
  0
LINE
  8
0-1
  6
CONTINUOUS
 62
    4
 10
30.204197
 20
127.70395
 11
30.204197
 21
135.57394
  0
LINE
  8
0-1
  6
CONTINUOUS
 62
    4
 10
43.805307
 20
127.70395
 11
29.504199
 21
127.70395
  0
LINE
  8
0-1
  6
CONTINUOUS
 62
    4
 10
43.805307
 20
135.57394
 11
29.504199
 21
135.57394
  0
LINE
  8
0-1
  6
CONTINUOUS
 62
    4
 10
30.204197
 20
127.70395
 11
29.945376
 21
128.66989
  0
LINE
  8
0-1
  6
CONTINUOUS
 62
    4
 10
30.204197
 20
127.70395
 11
30.463018
 21
128.66989
  0
LINE
  8
0-1
  6
CONTINUOUS
 62
    4
 10
30.204197
 20
135.57394
 11
29.945376
 21
134.60801
  0
LINE
  8
0-1
  6
CONTINUOUS
 62
    4
 10
30.204197
 20
135.57394
 11
30.463018
 21
134.60801
  0
LINE
  8
0-1
  6
CONTINUOUS
 62
    4
 10
30.204197
 20
160.69276
 11
30.204197
 21
170.69276
  0
LINE
  8
0-1
  6
CONTINUOUS
 62
    4
 10
43.805307
 20
160.69276
 11
29.504199
 21
160.69276
  0
LINE
  8
0-1
  6
CONTINUOUS
 62
    4
 10
43.805307
 20
170.69276
 11
29.504199
 21
170.69276
  0
LINE
  8
0-1
  6
CONTINUOUS
 62
    4
 10
30.204197
 20
160.69276
 11
29.945376
 21
161.65868
  0
LINE
  8
0-1
  6
CONTINUOUS
 62
    4
 10
30.204197
 20
160.69276
 11
30.463018
 21
161.65868
  0
LINE
  8
0-1
  6
CONTINUOUS
 62
    4
 10
30.204197
 20
170.69276
 11
29.945376
 21
169.72683
  0
LINE
  8
0-1
  6
CONTINUOUS
 62
    4
 10
30.204197
 20
170.69276
 11
30.463018
 21
169.72683
  0
LINE
  8
0-1
  6
CONTINUOUS
 62
    4
 10
70.175643
 20
122.70395
 11
70.175643
 21
127.70395
  0
LINE
  8
0-1
  6
CONTINUOUS
 62
    4
 10
75.805311
 20
127.70395
 11
69.475645
 21
127.70395
  0
LINE
  8
0-1
  6
CONTINUOUS
 62
    4
 10
70.175643
 20
122.70395
 11
69.916828
 21
123.66988
  0
LINE
  8
0-1
  6
CONTINUOUS
 62
    4
 10
70.175643
 20
122.70395
 11
70.434462
 21
123.66988
  0
LINE
  8
0-1
  6
CONTINUOUS
 62
    4
 10
70.175643
 20
127.70395
 11
69.916828
 21
126.73803
  0
LINE
  8
0-1
  6
CONTINUOUS
 62
    4
 10
70.175643
 20
127.70395
 11
70.434462
 21
126.73803
  0
LINE
  8
0-1
  6
CONTINUOUS
 62
    4
 10
121.52968
 20
122.70395
 11
121.52968
 21
131.70394
  0
LINE
  8
0-1
  6
CONTINUOUS
 62
    4
 10
113.80531
 20
122.70395
 11
122.22968
 21
122.70395
  0
LINE
  8
0-1
  6
CONTINUOUS
 62
    4
 10
113.80531
 20
131.70394
 11
122.22968
 21
131.70394
  0
LINE
  8
0-1
  6
CONTINUOUS
 62
    4
 10
121.52968
 20
122.70395
 11
121.27085
 21
123.66988
  0
LINE
  8
0-1
  6
CONTINUOUS
 62
    4
 10
121.52968
 20
122.70395
 11
121.7885
 21
123.66988
  0
LINE
  8
0-1
  6
CONTINUOUS
 62
    4
 10
121.52968
 20
131.70394
 11
121.27085
 21
130.73802
  0
LINE
  8
0-1
  6
CONTINUOUS
 62
    4
 10
121.52968
 20
131.70394
 11
121.7885
 21
130.73802
  0
LINE
  8
0-1
  6
CONTINUOUS
 62
    4
 10
47.960402
 20
127.70395
 11
37.70391
 21
109.93918
  0
LINE
  8
0-1
  6
CONTINUOUS
 62
    4
 10
37.70391
 20
109.93918
 11
24.115831
 21
109.93918
  0
LINE
  8
0-1
  6
CONTINUOUS
 62
    4
 10
47.960402
 20
127.70395
 11
47.701583
 21
126.73803
  0
LINE
  8
0-1
  6
CONTINUOUS
 62
    4
 10
47.960402
 20
127.70395
 11
47.253296
 21
126.99685
  0
LINE
  8
0-1
  6
CONTINUOUS
 62
    4
 10
78.805306
 20
131.70394
 11
89.939939
 21
150.98968
  0
LINE
  8
0-1
  6
CONTINUOUS
 62
    4
 10
78.805306
 20
131.70394
 11
79.064121
 21
132.66987
  0
LINE
  8
0-1
  6
CONTINUOUS
 62
    4
 10
78.805306
 20
131.70394
 11
79.512408
 21
132.41105
  0
LINE
  8
0-1
  6
CONTINUOUS
 62
    4
 10
89.939939
 20
150.98968
 11
98.235071
 21
150.98968
  0
LINE
  8
0-1
  6
CONTINUOUS
 62
    4
 10
102.36468
 20
146.52921
 11
113.05892
 21
146.52921
  0
LINE
  8
0-1
  6
CONTINUOUS
 62
    4
 10
93.805309
 20
131.70394
 11
94.064133
 21
132.66987
  0
LINE
  8
0-1
  6
CONTINUOUS
 62
    4
 10
93.805309
 20
131.70394
 11
94.512411
 21
132.41105
  0
LINE
  8
0-1
  6
CONTINUOUS
 62
    4
 10
108.80531
 20
131.70394
 11
115.5044
 21
143.30711
  0
LINE
  8
ADD_LINE
  6
DOT
 62
    4
 10
115.5044
 20
143.30711
 11
115.5044
 21
137.59079
  0
LINE
  8
0-1
  6
CONTINUOUS
 62
    4
 10
115.5044
 20
143.30711
 11
133.97112
 21
143.30711
  0
LINE
  8
0-1
  6
CONTINUOUS
 62
    4
 10
113.195
 20
139.30711
 11
133.97112
 21
139.30711
  0
LINE
  8
0-1
  6
CONTINUOUS
 62
    4
 10
108.80531
 20
131.70394
 11
109.06413
 21
132.66987
  0
LINE
  8
0-1
  6
CONTINUOUS
 62
    4
 10
108.80531
 20
131.70394
 11
109.51242
 21
132.41105
  0
LINE
  8
ADD_LINE
  6
DOT
 62
    7
 10
36.167878
 20
122.70395
 11
126.15929
 21
122.70395
  0
LINE
  8
0-0
  6
CONTINUOUS
 62
    7
 10
113.80531
 20
122.70395
 11
75.805311
 21
122.70395
  0
LINE
  8
0-1
  6
CONTINUOUS
 62
    4
 10
75.0673
 20
122.70395
 11
69.475645
 21
122.70395
  0
LINE
  8
0-1
  6
CONTINUOUS
 62
    4
 10
75.805311
 20
122.07327
 11
75.805311
 21
107.77252
  0
LINE
  8
ADD_LINE
  6
DOT
 62
    4
 10
56.455309
 20
131.70394
 11
39.89789
 21
131.70394
  0
LINE
  8
0-1
  6
CONTINUOUS
 62
    4
 10
35.636935
 20
138.07288
 11
35.601853
 21
137.07349
  0
LINE
  8
0-1
  6
CONTINUOUS
 62
    4
 10
35.636935
 20
138.07288
 11
35.106861
 21
137.22493
  0
LINE
  8
0-1
  6
CONTINUOUS
 62
    4
 10
34.684503
 20
131.70394
 11
34.425682
 21
132.66987
  0
LINE
  8
0-1
  6
CONTINUOUS
 62
    4
 10
34.684503
 20
131.70394
 11
34.943322
 21
132.66987
  0
LINE
  8
0-1
  6
CONTINUOUS
 62
    4
 10
42.451248
 20
135.98818
 11
34.967561
 21
138.27766
  0
LINE
  8
0-1
  6
CONTINUOUS
 62
    4
 10
41.810567
 20
131.70394
 11
33.984503
 21
131.70394
  0
LINE
  8
0-1
  6
CONTINUOUS
 62
    4
 10
185.25511
 20
130.90514
 11
185.25511
 21
135.90515
  0
LINE
  8
0-1
  6
CONTINUOUS
 62
    4
 10
185.25511
 20
130.90514
 11
184.99629
 21
131.87108
  0
LINE
  8
0-1
  6
CONTINUOUS
 62
    4
 10
185.25511
 20
130.90514
 11
185.51394
 21
131.87108
  0
LINE
  8
0-1
  6
CONTINUOUS
 62
    4
 10
185.25511
 20
135.90515
 11
184.99629
 21
134.93923
  0
LINE
  8
0-1
  6
CONTINUOUS
 62
    4
 10
185.25511
 20
135.90515
 11
185.51394
 21
134.93923
  0
LINE
  8
0-1
  6
CONTINUOUS
 62
    4
 10
185.25511
 20
135.90515
 11
185.25511
 21
143.68776
  0
LINE
  8
0-1
  6
CONTINUOUS
 62
    4
 10
185.25511
 20
135.90515
 11
184.99629
 21
136.87108
  0
LINE
  8
0-1
  6
CONTINUOUS
 62
    4
 10
185.25511
 20
135.90515
 11
185.51394
 21
136.87108
  0
LINE
  8
0-1
  6
CONTINUOUS
 62
    4
 10
185.25511
 20
143.68776
 11
184.99629
 21
142.72183
  0
LINE
  8
0-1
  6
CONTINUOUS
 62
    4
 10
185.25511
 20
143.68776
 11
185.51394
 21
142.72183
  0
LINE
  8
ADD_LINE
  6
DOT
 62
    7
 10
193.61946
 20
130.90514
 11
255.823
 21
130.90514
  0
LINE
  8
0-1
  6
CONTINUOUS
 62
    4
 10
184.53149
 20
130.90514
 11
210.76296
 21
130.90514
  0
LINE
  8
0-1
  6
CONTINUOUS
 62
    4
 10
201.94247
 20
158.55224
 11
221.94247
 21
158.55224
  0
LINE
  8
0-1
  6
CONTINUOUS
 62
    4
 10
201.94247
 20
158.55224
 11
202.90841
 21
158.81106
  0
LINE
  8
0-1
  6
CONTINUOUS
 62
    4
 10
201.94247
 20
158.55224
 11
202.90841
 21
158.29341
  0
LINE
  8
0-1
  6
CONTINUOUS
 62
    4
 10
221.94247
 20
158.55224
 11
220.97653
 21
158.81106
  0
LINE
  8
0-1
  6
CONTINUOUS
 62
    4
 10
221.94247
 20
158.55224
 11
220.97653
 21
158.29341
  0
LINE
  8
0-1
  6
CONTINUOUS
 62
    4
 10
236.55262
 20
158.55224
 11
248.55264
 21
158.55224
  0
LINE
  8
0-1
  6
CONTINUOUS
 62
    4
 10
236.55262
 20
143.68776
 11
236.55262
 21
159.25224
  0
LINE
  8
0-1
  6
CONTINUOUS
 62
    4
 10
248.55264
 20
143.68776
 11
248.55264
 21
159.25224
  0
LINE
  8
0-1
  6
CONTINUOUS
 62
    4
 10
236.55262
 20
158.55224
 11
237.51854
 21
158.81106
  0
LINE
  8
0-1
  6
CONTINUOUS
 62
    4
 10
236.55262
 20
158.55224
 11
237.51854
 21
158.29341
  0
LINE
  8
0-1
  6
CONTINUOUS
 62
    4
 10
248.55264
 20
158.55224
 11
247.58672
 21
158.81106
  0
LINE
  8
0-1
  6
CONTINUOUS
 62
    4
 10
248.55264
 20
158.55224
 11
247.58672
 21
158.29341
  0
LINE
  8
0-1
  6
CONTINUOUS
 62
    4
 10
221.94247
 20
138.47157
 11
221.94247
 21
159.25224
  0
LINE
  8
0-1
  6
CONTINUOUS
 62
    4
 10
201.94247
 20
148.42145
 11
206.94248
 21
148.42145
  0
LINE
  8
0-1
  6
CONTINUOUS
 62
    4
 10
201.94247
 20
143.68776
 11
201.94247
 21
149.12145
  0
LINE
  8
0-1
  6
CONTINUOUS
 62
    4
 10
201.94247
 20
148.42145
 11
202.90841
 21
148.68027
  0
LINE
  8
0-1
  6
CONTINUOUS
 62
    4
 10
201.94247
 20
148.42145
 11
202.90841
 21
148.16262
  0
LINE
  8
0-1
  6
CONTINUOUS
 62
    4
 10
206.94248
 20
148.42145
 11
205.97655
 21
148.68027
  0
LINE
  8
0-1
  6
CONTINUOUS
 62
    4
 10
206.94248
 20
148.42145
 11
205.97655
 21
148.16262
  0
LINE
  8
0-1
  6
CONTINUOUS
 62
    4
 10
177.73091
 20
151.08998
 11
177.69602
 21
150.09059
  0
LINE
  8
0-1
  6
CONTINUOUS
 62
    4
 10
177.73091
 20
151.08998
 11
177.201
 21
150.24194
  0
LINE
  8
0-1
  6
CONTINUOUS
 62
    4
 10
174.71429
 20
130.90514
 11
174.45546
 21
131.87108
  0
LINE
  8
0-1
  6
CONTINUOUS
 62
    4
 10
174.71429
 20
130.90514
 11
174.97311
 21
131.87108
  0
LINE
  8
0-1
  6
CONTINUOUS
 62
    4
 10
173.5506
 20
130.90514
 11
185.25511
 21
130.90514
  0
LINE
  8
0-1
  6
CONTINUOUS
 62
    4
 10
200.67658
 20
144.07479
 11
176.87987
 21
151.35017
  0
LINE
  8
ADD_LINE
  6
DOT
 62
    7
 10
201.94247
 20
159.37859
 11
201.94247
 21
120.82993
  0
LINE
  8
0-1
  6
CONTINUOUS
 62
    4
 10
201.94247
 20
144.39535
 11
201.94247
 21
159.25224
  0
LINE
  8
0-1
  6
CONTINUOUS
 62
    4
 10
200.698
 20
143.68776
 11
184.55511
 21
143.68776
  0
LINE
  8
0-1
  6
CONTINUOUS
 62
    4
 10
201.63721
 20
135.90515
 11
184.55511
 21
135.90515
  0
LINE
  8
0-1
  6
CONTINUOUS
 62
    4
 10
206.94248
 20
142.39168
 11
206.94248
 21
149.12145
  0
LINE
  8
0-1
  6
CONTINUOUS
 62
    4
 10
228.51519
 20
130.90514
 11
228.51519
 21
137.57315
  0
LINE
  8
0-1
  6
CONTINUOUS
 62
    4
 10
222.5784
 20
130.90514
 11
229.21517
 21
130.90514
  0
LINE
  8
0-1
  6
CONTINUOUS
 62
    4
 10
222.5784
 20
137.57315
 11
229.21517
 21
137.57315
  0
LINE
  8
0-1
  6
CONTINUOUS
 62
    4
 10
228.51519
 20
130.90514
 11
228.25638
 21
131.87108
  0
LINE
  8
0-1
  6
CONTINUOUS
 62
    4
 10
228.51519
 20
130.90514
 11
228.77399
 21
131.87108
  0
LINE
  8
0-1
  6
CONTINUOUS
 62
    4
 10
228.51519
 20
137.57315
 11
228.25638
 21
136.60722
  0
LINE
  8
0-1
  6
CONTINUOUS
 62
    4
 10
228.51519
 20
137.57315
 11
228.77399
 21
136.60722
  0
LINE
  8
0-1
  6
CONTINUOUS
 62
    4
 10
201.94247
 20
120.03358
 11
211.94247
 21
120.03358
  0
LINE
  8
0-1
  6
CONTINUOUS
 62
    4
 10
211.94247
 20
130.42298
 11
211.94247
 21
119.33357
  0
LINE
  8
0-1
  6
CONTINUOUS
 62
    4
 10
201.94247
 20
120.03358
 11
202.90841
 21
120.2924
  0
LINE
  8
0-1
  6
CONTINUOUS
 62
    4
 10
201.94247
 20
120.03358
 11
202.90841
 21
119.77475
  0
LINE
  8
0-1
  6
CONTINUOUS
 62
    4
 10
211.94247
 20
120.03358
 11
210.97654
 21
120.2924
  0
LINE
  8
0-1
  6
CONTINUOUS
 62
    4
 10
211.94247
 20
120.03358
 11
210.97654
 21
119.77475
  0
LINE
  8
0-1
  6
CONTINUOUS
 62
    4
 10
201.94247
 20
134.43034
 11
201.94247
 21
119.33357
  0
LINE
  8
0-1
  6
CONTINUOUS
 62
    4
 10
238.67065
 20
120.03358
 11
246.43465
 21
120.03358
  0
LINE
  8
0-1
  6
CONTINUOUS
 62
    4
 10
238.67065
 20
131.75877
 11
238.67065
 21
119.33357
  0
LINE
  8
0-1
  6
CONTINUOUS
 62
    4
 10
246.43465
 20
131.75877
 11
246.43465
 21
119.33357
  0
LINE
  8
0-1
  6
CONTINUOUS
 62
    4
 10
238.67065
 20
120.03358
 11
239.63656
 21
120.2924
  0
LINE
  8
0-1
  6
CONTINUOUS
 62
    4
 10
238.67065
 20
120.03358
 11
239.63656
 21
119.77475
  0
LINE
  8
0-1
  6
CONTINUOUS
 62
    4
 10
246.43465
 20
120.03358
 11
245.46874
 21
120.2924
  0
LINE
  8
0-1
  6
CONTINUOUS
 62
    4
 10
246.43465
 20
120.03358
 11
245.46874
 21
119.77475
  0
LINE
  8
0-1
  6
CONTINUOUS
 62
    4
 10
248.05718
 20
133.40515
 11
256.27712
 21
133.40515
  0
LINE
  8
0-1
  6
CONTINUOUS
 62
    4
 10
248.05718
 20
130.90514
 11
256.27712
 21
130.90514
  0
LINE
  8
0-1
  6
CONTINUOUS
 62
    4
 10
255.57713
 20
133.40515
 11
255.83595
 21
134.37107
  0
LINE
  8
0-1
  6
CONTINUOUS
 62
    4
 10
255.57713
 20
130.90514
 11
255.31832
 21
129.93922
  0
LINE
  8
0-1
  6
CONTINUOUS
 62
    4
 10
255.57713
 20
130.90514
 11
255.83595
 21
129.93922
  0
LINE
  8
0-1
  6
CONTINUOUS
 62
    4
 10
255.57713
 20
133.40515
 11
255.31832
 21
134.37107
  0
LINE
  8
0-1
  6
CONTINUOUS
 62
    4
 10
255.57713
 20
140.40715
 11
255.57713
 21
128.81957
  0
LINE
  8
0-1
  6
CONTINUOUS
 62
    4
 10
246.43465
 20
133.40515
 11
255.58002
 21
117.56488
  0
LINE
  8
0-1
  6
CONTINUOUS
 62
    4
 10
255.58002
 20
117.56488
 11
273.6981
 21
117.56488
  0
LINE
  8
0-1
  6
CONTINUOUS
 62
    4
 10
246.43465
 20
133.40515
 11
247.14174
 21
132.69804
  0
LINE
  8
0-1
  6
CONTINUOUS
 62
    4
 10
246.43465
 20
133.40515
 11
246.69346
 21
132.43921
  0
LINE
  8
0-1
  6
CONTINUOUS
 62
    4
 10
242.55265
 20
142.15911
 11
253.4267
 21
148.43725
  0
LINE
  8
0-1
  6
CONTINUOUS
 62
    4
 10
253.4267
 20
148.43725
 11
264.60139
 21
148.43725
  0
LINE
  8
0-1
  6
CONTINUOUS
 62
    4
 10
242.55265
 20
142.15911
 11
243.25976
 21
142.86621
  0
LINE
  8
0-1
  6
CONTINUOUS
 62
    4
 10
242.55265
 20
142.15911
 11
243.51857
 21
142.41793
  0
LINE
  8
0-1
  6
CONTINUOUS
 62
    4
 10
93.805309
 20
131.70394
 11
102.36468
 21
146.52921
  0
LINE
  8
ADD_LINE
  6
DOT
 62
    7
 10
200.19025
 20
65.635239
 11
273.78319
 21
65.635239
  0
LINE
  8
ADD_LINE
  6
DOT
 62
    7
 10
205.00885
 20
75.272406
 11
205.00885
 21
12.630816
  0
LINE
  8
ADD_LINE
  6
DOT
 62
    7
 10
200.19025
 20
59.63524
 11
273.78319
 21
59.63524
  0
LINE
  8
ADD_LINE
  6
DOT
 62
    7
 10
200.19025
 20
53.63524
 11
273.78319
 21
53.63524
  0
LINE
  8
ADD_LINE
  6
DOT
 62
    7
 10
200.19025
 20
47.635241
 11
273.78319
 21
47.635241
  0
LINE
  8
ADD_LINE
  6
DOT
 62
    7
 10
200.19025
 20
41.635242
 11
273.78319
 21
41.635242
  0
LINE
  8
ADD_LINE
  6
DOT
 62
    7
 10
200.19025
 20
35.63524
 11
273.78319
 21
35.63524
  0
LINE
  8
ADD_LINE
  6
DOT
 62
    7
 10
200.19025
 20
29.635241
 11
273.78319
 21
29.635241
  0
LINE
  8
ADD_LINE
  6
DOT
 62
    7
 10
200.19025
 20
23.635241
 11
273.78319
 21
23.635241
  0
LINE
  8
ADD_LINE
  6
DOT
 62
    7
 10
200.19025
 20
17.635243
 11
273.78319
 21
17.635243
  0
LINE
  8
0-2
  6
CONTINUOUS
 62
    7
 10
77.105308
 20
122.70395
 11
77.105308
 21
131.70394
  0
LINE
  8
0-2
  6
CONTINUOUS
 62
    7
 10
80.505305
 20
122.70395
 11
80.505305
 21
131.70394
  0
LINE
  8
0-2
  6
CONTINUOUS
 62
    7
 10
92.305307
 20
122.70395
 11
92.305307
 21
131.70394
  0
LINE
  8
0-2
  6
CONTINUOUS
 62
    7
 10
95.305311
 20
122.70395
 11
95.305311
 21
131.70394
  0
LINE
  8
0-2
  6
CONTINUOUS
 62
    7
 10
92.505313
 20
122.70395
 11
92.505313
 21
131.70394
  0
LINE
  8
0-2
  6
CONTINUOUS
 62
    7
 10
95.105306
 20
122.70395
 11
95.105306
 21
131.70394
  0
LINE
  8
0-2
  6
CONTINUOUS
 62
    7
 10
211.94247
 20
134.60514
 11
221.94247
 21
134.60514
  0
LINE
  8
0-2
  6
CONTINUOUS
 62
    7
 10
211.94247
 20
132.20515
 11
221.94247
 21
132.20515
  0
LINE
  8
0-2
  6
CONTINUOUS
 62
    7
 10
208.37695
 20
141.72055
 11
206.59899
 21
135.90515
  0
LINE
  8
0-2
  6
CONTINUOUS
 62
    7
 10
208.18568
 20
141.77903
 11
206.38984
 21
135.90515
  0
LINE
  8
0-2
  6
CONTINUOUS
 62
    7
 10
205.69928
 20
142.53919
 11
203.67105
 21
135.90515
  0
LINE
  8
0-2
  6
CONTINUOUS
 62
    7
 10
205.50802
 20
142.59767
 11
203.46191
 21
135.90515
  0
CIRCLE
  8
0-0
  6
CONTINUOUS
 62
    7
 10
108.8053
 20
165.69275
 40
1.7
  0
CIRCLE
  8
0-0
  6
CONTINUOUS
 62
    7
 10
78.805306
 20
165.69275
 40
1.7
  0
CIRCLE
  8
0-0
  6
CONTINUOUS
 62
    7
 10
93.805309
 20
165.69275
 40
1.4999999
  0
CIRCLE
  8
0-0
  6
CONTINUOUS
 62
    7
 10
93.805309
 20
165.69275
 40
1.2999999
  0
CIRCLE
  8
0-0
  6
CONTINUOUS
 62
    7
 10
108.8053
 20
165.69275
 40
2.9999999
  0
CIRCLE
  8
0-0
  6
CONTINUOUS
 62
    7
 10
238.67065
 20
133.40515
 40
1.2
  0
CIRCLE
  8
0-0
  6
CONTINUOUS
 62
    7
 10
246.43465
 20
133.40515
 40
1.2
  0
ARC
  8
0-1
  6
CONTINUOUS
 62
    4
 10
56.455309
 20
131.70394
 40
21.770805
 50
162.98963
 51
180
  0
ARC
  8
0-1
  6
CONTINUOUS
 62
    4
 10
243.75247
 20
130.90514
 40
69.038198
 50
162.99998
 51
180
  0
TEXT
  8
0-f
 10
269.90265
 20
190.10426
 40
3
 41
1
 50
0
  1
縮尺 1/1.0
  0
TEXT
  8
0-1
 10
67.565274
 20
28.754743
 40
2.5
 41
1
 50
0
  1
50.00
  0
TEXT
  8
0-1
 10
56.565272
 20
61.314272
 40
2.5
 41
1
 50
0
  1
28.00
  0
TEXT
  8
0-1
 10
88.56528
 20
57.434785
 40
2.5
 41
1
 50
0
  1
φ5.0
  0
TEXT
  8
0-1
 10
36.36352
 20
56.891426
 40
2.5
 41
1
 50
0
  1
φ4.8
  0
TEXT
  8
0-1
 10
25.642702
 20
32.37007
 40
2.5
 41
1
 50
0
  1
M3深サ5
  0
TEXT
  8
0-1
 10
102.80552
 20
34.526857
 40
2.5
 41
1
 50
0
  1
M2深サ5
  0
TEXT
  8
0-1
 10
75.680309
 20
98.648774
 40
2.5
 41
1
 50
0
  1
70.00
  0
TEXT
  8
0-1
 10
91.680304
 20
108.97252
 40
2.5
 41
1
 50
0
  1
38.00
  0
TEXT
  8
0-1
 10
44.305308
 20
147.35569
 40
2.5
 41
1
 50
0
  1
6.00
  0
TEXT
  8
0-1
 10
90.680303
 20
184.41532
 40
2.5
 41
1
 50
0
  1
30.00
  0
TEXT
  8
0-1
 10
108.8053
 20
184.41532
 40
2.5
 41
1
 50
0
  1
5.00
  0
TEXT
  8
0-1
 10
100.6803
 20
178.32697
 40
2.5
 41
1
 50
0
  1
20.00
  0
TEXT
  8
0-1
 10
82.005307
 20
194.20965
 40
2.5
 41
1
 50
0
  1
57.35
  0
TEXT
  8
0-1
 10
29.704198
 20
162.56776
 40
2.5
 41
1
 50
90
  1
10.00
  0
TEXT
  8
0-1
 10
28.910064
 20
127.76704
 40
2.5
 41
1
 50
90
  1
(7.87)
  0
TEXT
  8
0-1
 10
69.675642
 20
122.70395
 40
2.5
 41
1
 50
90
  1
5.00
  0
TEXT
  8
0-1
 10
121.02968
 20
124.70395
 40
2.5
 41
1
 50
90
  1
9.00
  0
TEXT
  8
0-1
 10
24.615829
 20
110.43918
 40
2.5
 41
1
 50
0
  1
M3トウシ
  0
TEXT
  8
0-1
 10
90.439939
 20
151.48969
 40
2.5
 41
1
 50
0
  1
φ3.4
  0
TEXT
  8
0-1
 10
102.86469
 20
147.0292
 40
2.5
 41
1
 50
0
  1
M3トウシ
  0
TEXT
  8
0-1
 10
116.0044
 20
143.80711
 40
2.5
 41
1
 50
0
  1
φ3.4トウシ
  0
TEXT
  8
0-1
 10
116.0044
 20
139.80711
 40
2.5
 41
1
 50
0
  1
φ6座グリ深サ4
  0
TEXT
  8
0-1
 10
34.289986
 20
135.95848
 40
2.5
 41
1
 50
81.494781
  1
17ﾟ
  0
TEXT
  8
0-1
 10
208.81746
 20
159.05223
 40
2.5
 41
1
 50
0
  1
20.00
  0
TEXT
  8
0-1
 10
239.42764
 20
159.05223
 40
2.5
 41
1
 50
0
  1
12.00
  0
TEXT
  8
0-1
 10
201.94247
 20
148.92144
 40
2.5
 41
1
 50
0
  1
5.00
  0
TEXT
  8
0-1
 10
174.21806
 20
139.15451
 40
2.5
 41
1
 50
81.499984
  1
17ﾟ
  0
TEXT
  8
0-1
 10
228.01519
 20
131.73915
 40
2.5
 41
1
 50
90
  1
6.67
  0
TEXT
  8
0-1
 10
203.81747
 20
120.53358
 40
2.5
 41
1
 50
0
  1
10.00
  0
TEXT
  8
0-1
 10
240.05264
 20
120.53358
 40
2.5
 41
1
 50
0
  1
7.76
  0
TEXT
  8
0-1
 10
255.33594
 20
134.87107
 40
2.5
 41
1
 50
90
  1
2.50
  0
TEXT
  8
0-1
 10
256.08003
 20
118.06488
 40
2.5
 41
1
 50
0
  1
2-φ2.4トウシ
  0
TEXT
  8
0-1
 10
253.92671
 20
148.93724
 40
2.5
 41
1
 50
0
  1
M3トウシ
  0
TEXT
  8
0-2
 10
205.50884
 20
66.135244
 40
3
 41
1
 50
0
  1
17度側カバー支持部品
  0
TEXT
  8
0-2
 10
205.50884
 20
60.13524
 40
3
 41
1
 50
0
  1
98/04/01  Ｎ研　居波
  0
TEXT
  8
0-2
 10
205.50884
 20
42.135238
 40
3
 41
1
 50
0
  1
材質:Al
  0
TEXT
  8
0-2
 10
205.50884
 20
36.135239
 40
3
 41
1
 50
0
  1
個数:Ａ 32
  0
TEXT
  8
0-2
 10
205.50884
 20
30.135239
 40
3
 41
1
 50
0
  1
     Ｂ 64
  0
TEXT
  8
0-2
 10
205.50884
 20
24.135242
 40
3
 41
1
 50
0
  1
     Ｃ 32
  0
TEXT
  8
0-2
 10
28.973449
 20
184.84763
 40
4
 41
1
 50
0
  1
Ａ
  0
TEXT
  8
0-2
 10
25.469026
 20
65.697189
 40
4
 41
1
 50
0
  1
Ｂ
  0
TEXT
  8
0-2
 10
173.96901
 20
162.06887
 40
4
 41
1
 50
0
  1
Ｃ
  0
TEXT
  8
0-1
 10
184.03148
 20
131.40515
 40
2.5
 41
1
 50
90
  1
5.10
  0
TEXT
  8
0-1
 10
184.0551
 20
136.40515
 40
2.5
 41
1
 50
90
  1
(7.68)
  0
ENDSEC
  0
EOF
