  0
SECTION
  2
HEADER
  9
$EXTMIN
 10
0
 20
0
  9
$EXTMAX
 10
594
 20
420
  0
ENDSEC
  0
SECTION
  2
TABLES
  0
TABLE
  2
LTYPE
 70
     9
  0
LTYPE
  2
CONTINUOUS
 70
    64
  3
実線
 72
    65
 73
     0
 40
0.0
  0
LTYPE
  2
DASHED1
 70
    64
  3
--  --  --  --  --  --  --  --  
 72
    65
 73
     2
 40
2.5
 49
1.25
 49
-1.25
  0
LTYPE
  2
DASHED2
 70
    64
  3
----    ----    ----    ----    
 72
    65
 73
     2
 40
5.0
 49
2.5
 49
-2.5
  0
LTYPE
  2
DASHED3
 70
    64
  3
------  ------  ------  ------  
 72
    65
 73
     2
 40
5.0
 49
3.75
 49
-1.25
  0
LTYPE
  2
CENTER1
 70
    64
  3
----- - ----- - ----- - ----- - 
 72
    65
 73
     4
 40
10.0
 49
6.25
 49
-1.25
 49
1.25
 49
-1.25
  0
LTYPE
  2
CENTER2
 70
    64
  3
----------  --  ----------  --  
 72
    65
 73
     4
 40
20.0
 49
12.5
 49
-2.5
 49
2.5
 49
-2.5
  0
LTYPE
  2
PHANTOM1
 70
    64
  3
--- - - --- - - --- - - --- - - 
 72
    65
 73
     6
 40
10.0
 49
3.25
 49
-1.25
 49
1.25
 49
-1.25
 49
1.25
 49
-1.25
  0
LTYPE
  2
PHANTOM2
 70
    64
  3
--------  -  -  --------  -  -  
 72
    65
 73
     6
 40
20.0
 49
10.0
 49
-2.5
 49
1.25
 49
-2.5
 49
1.25
 49
-2.5
  0
LTYPE
  2
DOT
 70
    64
  3
-   -   -   -   -   -   -   -   
 72
    65
 73
     2
 40
2.5
 49
0.625
 49
-1.875
  0
ENDTAB
  0
TABLE
  2
STYLE
 70
    1
  0
STYLE
  2
STANDARD
 70
    64
 40
0.0
 41
1.0
 42
0.0
 50
0.0
 71
     0
  3
TXT
  4
BIGFONT
  0
ENDTAB
  0
TABLE
  2
LAYER
 70
    7
  0
LAYER
  2
0-0
 70
   64
 62
    7
  6
CONTINUOUS
  0
LAYER
  2
0-1
 70
   64
 62
    7
  6
CONTINUOUS
  0
LAYER
  2
0-2
 70
   64
 62
    7
  6
CONTINUOUS
  0
LAYER
  2
0-8
 70
   64
 62
    7
  6
CONTINUOUS
  0
LAYER
  2
0-9
 70
   64
 62
    7
  6
CONTINUOUS
  0
LAYER
  2
0-f
 70
   64
 62
    7
  6
CONTINUOUS
  0
LAYER
  2
ADD_LINE
 70
   64
 62
    7
  6
CONTINUOUS
  0
ENDTAB
  0
ENDSEC
  0
SECTION
  2
ENTITIES
  0
LINE
  8
0-0
  6
CONTINUOUS
 62
    7
 10
154.14454
 20
303.60788
 11
152.14459
 21
303.60788
  0
LINE
  8
ADD_LINE
  6
DOT
 62
    7
 10
455.49063
 20
60.042023
 11
455.49063
 21
-1.8807521
  0
LINE
  8
ADD_LINE
  6
DOT
 62
    7
 10
447.46364
 20
49.721566
 11
588.50995
 21
49.721566
  0
LINE
  8
ADD_LINE
  6
DOT
 62
    7
 10
447.46364
 20
39.721569
 11
588.50995
 21
39.721569
  0
LINE
  8
ADD_LINE
  6
DOT
 62
    7
 10
447.46364
 20
29.721564
 11
588.50995
 21
29.721564
  0
LINE
  8
ADD_LINE
  6
DOT
 62
    7
 10
447.46364
 20
19.72156
 11
588.50995
 21
19.72156
  0
LINE
  8
0-f
  6
CONTINUOUS
 62
    7
 10
0
 20
421.99229
 11
0
 21
0
  0
LINE
  8
0-f
  6
CONTINUOUS
 62
    7
 10
0
 20
0
 11
594
 21
0
  0
LINE
  8
0-f
  6
CONTINUOUS
 62
    7
 10
594
 20
0
 11
594
 21
421.99229
  0
LINE
  8
0-f
  6
CONTINUOUS
 62
    7
 10
594
 20
421.99229
 11
0
 21
421.99229
  0
LINE
  8
ADD_LINE
  6
DOT
 62
    7
 10
152.14459
 20
95.607896
 11
160.30926
 21
95.607896
  0
LINE
  8
0-0
  6
CONTINUOUS
 62
    7
 10
153.94461
 20
95.057549
 11
153.94461
 21
100.60788
  0
LINE
  8
0-0
  6
CONTINUOUS
 62
    7
 10
153.94461
 20
100.60788
 11
152.14459
 21
100.60788
  0
LINE
  8
0-0
  6
CONTINUOUS
 62
    7
 10
152.14459
 20
220.10788
 11
152.14459
 21
100.60788
  0
LINE
  8
ADD_LINE
  6
DOT
 62
    7
 10
152.14459
 20
95.607896
 11
152.14459
 21
100.60788
  0
LINE
  8
ADD_LINE
  6
DOT
 62
    7
 10
152.14459
 20
95.607896
 11
153.94461
 21
95.057549
  0
LINE
  8
0-0
  6
CONTINUOUS
 62
    7
 10
153.94461
 20
339.60791
 11
152.14459
 21
339.60791
  0
LINE
  8
ADD_LINE
  6
DOT
 62
    7
 10
152.14459
 20
344.6079
 11
152.14459
 21
339.60791
  0
LINE
  8
ADD_LINE
  6
DOT
 62
    7
 10
152.14459
 20
344.6079
 11
153.94461
 21
345.15822
  0
LINE
  8
0-0
  6
CONTINUOUS
 62
    7
 10
164.14463
 20
304.10793
 11
164.14463
 21
298.10786
  0
LINE
  8
0-0
  6
CONTINUOUS
 62
    7
 10
168.1446
 20
304.10793
 11
164.14463
 21
304.10793
  0
LINE
  8
0-0
  6
CONTINUOUS
 62
    7
 10
152.14459
 20
339.60791
 11
152.14459
 21
303.60788
  0
LINE
  8
0-0
  6
CONTINUOUS
 62
    7
 10
168.1446
 20
298.10786
 11
164.14463
 21
298.10786
  0
LINE
  8
0-0
  6
CENTER1
 62
    7
 10
170.9398
 20
308.10784
 11
146.38899
 21
308.10784
  0
LINE
  8
0-0
  6
CENTER1
 62
    7
 10
170.9398
 20
301.10787
 11
148.36483
 21
301.10787
  0
LINE
  8
0-0
  6
CENTER1
 62
    7
 10
182.66119
 20
324.1079
 11
147.02436
 21
324.1079
  0
LINE
  8
0-0
  6
CONTINUOUS
 62
    7
 10
154.14454
 20
299.40785
 11
164.14463
 21
299.40785
  0
LINE
  8
0-0
  6
CENTER1
 62
    7
 10
182.66119
 20
342.10792
 11
139.7877
 21
342.10792
  0
LINE
  8
ADD_LINE
  6
DOT
 62
    7
 10
180.93952
 20
348.56586
 11
174.38835
 21
348.56586
  0
LINE
  8
0-0
  6
CONTINUOUS
 62
    7
 10
153.94461
 20
345.15822
 11
187.14459
 21
355.30844
  0
LINE
  8
0-0
  6
CONTINUOUS
 62
    7
 10
187.14459
 20
351.62317
 11
187.14459
 21
355.30844
  0
LINE
  8
0-0
  6
CONTINUOUS
 62
    7
 10
177.14456
 20
348.56586
 11
187.14459
 21
351.62317
  0
LINE
  8
0-0
  6
CONTINUOUS
 62
    7
 10
177.14456
 20
348.56586
 11
177.14456
 21
313.10789
  0
LINE
  8
0-0
  6
CONTINUOUS
 62
    7
 10
177.14456
 20
313.10789
 11
177.14456
 21
220.10788
  0
LINE
  8
0-0
  6
CONTINUOUS
 62
    7
 10
187.14459
 20
351.62317
 11
187.14459
 21
84.907332
  0
LINE
  8
0-0
  6
CONTINUOUS
 62
    7
 10
177.14456
 20
345.1079
 11
173.14461
 21
345.1079
  0
LINE
  8
0-0
  6
CONTINUOUS
 62
    7
 10
173.14461
 20
345.1079
 11
173.14461
 21
339.10788
  0
LINE
  8
0-0
  6
CONTINUOUS
 62
    7
 10
177.14456
 20
339.10788
 11
173.14461
 21
339.10788
  0
LINE
  8
0-0
  6
CONTINUOUS
 62
    7
 10
153.94461
 20
344.10787
 11
173.14461
 21
344.10787
  0
LINE
  8
0-0
  6
CONTINUOUS
 62
    7
 10
153.94461
 20
340.10791
 11
173.14461
 21
340.10791
  0
LINE
  8
0-0
  6
CONTINUOUS
 62
    7
 10
168.1446
 20
309.60787
 11
152.14459
 21
309.60787
  0
LINE
  8
0-0
  6
CONTINUOUS
 62
    7
 10
168.1446
 20
309.40786
 11
152.14459
 21
309.40786
  0
LINE
  8
0-0
  6
CONTINUOUS
 62
    7
 10
168.1446
 20
306.80788
 11
152.14459
 21
306.80788
  0
LINE
  8
0-0
  6
CONTINUOUS
 62
    7
 10
168.1446
 20
306.60786
 11
152.14459
 21
306.60786
  0
LINE
  8
0-0
  6
CENTER1
 62
    7
 10
254.28461
 20
220.10788
 11
239.99959
 21
220.1079
  0
LINE
  8
0-0
  6
CENTER1
 62
    7
 10
521.61017
 20
220.10787
 11
507.32516
 21
220.10787
  0
LINE
  8
0-0
  6
CENTER1
 62
    7
 10
184.14796
 20
347.11823
 11
181.10802
 21
357.06153
  0
LINE
  8
0-0
  6
CONTINUOUS
 62
    7
 10
183.5486
 20
354.20911
 11
184.57902
 21
350.83877
  0
LINE
  8
0-0
  6
CONTINUOUS
 62
    7
 10
180.67969
 20
353.33196
 11
181.71008
 21
349.96167
  0
LINE
  8
0-0
  6
CONTINUOUS
 62
    7
 10
183.35737
 20
354.15061
 11
184.38775
 21
350.78032
  0
LINE
  8
0-0
  6
CONTINUOUS
 62
    7
 10
180.87097
 20
353.39046
 11
181.90133
 21
350.02012
  0
LINE
  8
0-0
  6
CONTINUOUS
 62
    7
 10
167.14456
 20
325.60788
 11
177.14456
 21
325.60788
  0
LINE
  8
0-0
  6
CONTINUOUS
 62
    7
 10
167.14456
 20
322.6079
 11
177.14456
 21
322.6079
  0
LINE
  8
0-1
  6
CONTINUOUS
 62
    4
 10
187.14459
 20
83.412727
 11
187.14459
 21
69.810568
  0
LINE
  8
0-1
  6
CONTINUOUS
 62
    4
 10
152.14459
 20
63.476792
 11
187.14459
 21
63.476792
  0
LINE
  8
0-1
  6
CONTINUOUS
 62
    4
 10
187.14459
 20
83.412727
 11
187.14459
 21
62.076808
  0
LINE
  8
0-1
  6
CONTINUOUS
 62
    4
 10
152.14459
 20
63.476792
 11
154.07644
 21
63.99444
  0
LINE
  8
0-1
  6
CONTINUOUS
 62
    4
 10
152.14459
 20
63.476792
 11
154.07644
 21
62.959144
  0
LINE
  8
0-1
  6
CONTINUOUS
 62
    4
 10
187.14459
 20
63.476792
 11
185.21272
 21
63.99444
  0
LINE
  8
0-1
  6
CONTINUOUS
 62
    4
 10
187.14459
 20
63.476792
 11
185.21272
 21
62.959144
  0
LINE
  8
0-1
  6
CONTINUOUS
 62
    4
 10
153.94461
 20
93.552571
 11
153.94461
 21
69.810568
  0
LINE
  8
0-1
  6
CONTINUOUS
 62
    4
 10
138.93459
 20
100.60788
 11
138.93459
 21
220.10788
  0
LINE
  8
0-1
  6
CONTINUOUS
 62
    4
 10
150.85032
 20
100.60788
 11
137.53461
 21
100.60788
  0
LINE
  8
0-1
  6
CONTINUOUS
 62
    4
 10
138.93459
 20
100.60788
 11
138.41697
 21
102.53974
  0
LINE
  8
0-1
  6
CONTINUOUS
 62
    4
 10
138.93459
 20
100.60788
 11
139.45221
 21
102.53974
  0
LINE
  8
0-1
  6
CONTINUOUS
 62
    4
 10
138.93459
 20
220.10788
 11
138.41697
 21
218.17603
  0
LINE
  8
0-1
  6
CONTINUOUS
 62
    4
 10
138.93459
 20
220.10788
 11
139.45221
 21
218.17603
  0
LINE
  8
0-1
  6
CONTINUOUS
 62
    4
 10
122.13034
 20
220.10788
 11
122.13034
 21
95.057549
  0
LINE
  8
0-1
  6
CONTINUOUS
 62
    4
 10
152.14459
 20
93.552571
 11
152.14459
 21
62.076808
  0
LINE
  8
0-1
  6
CONTINUOUS
 62
    4
 10
153.19149
 20
95.057549
 11
120.73036
 21
95.057549
  0
LINE
  8
0-1
  6
CONTINUOUS
 62
    4
 10
196.29973
 20
84.907332
 11
196.29973
 21
220.10788
  0
LINE
  8
0-1
  6
CONTINUOUS
 62
    4
 10
196.29973
 20
84.907332
 11
195.78209
 21
86.839188
  0
LINE
  8
0-1
  6
CONTINUOUS
 62
    4
 10
196.29973
 20
84.907332
 11
196.81736
 21
86.839188
  0
LINE
  8
0-1
  6
CONTINUOUS
 62
    4
 10
196.29973
 20
220.10788
 11
195.78209
 21
218.17603
  0
LINE
  8
0-1
  6
CONTINUOUS
 62
    4
 10
196.29973
 20
220.10788
 11
196.81736
 21
218.17603
  0
LINE
  8
0-1
  6
CONTINUOUS
 62
    4
 10
212.81774
 20
77.05831
 11
212.88752
 21
79.057088
  0
LINE
  8
0-1
  6
CONTINUOUS
 62
    4
 10
212.81774
 20
77.05831
 11
213.87758
 21
78.754402
  0
LINE
  8
0-1
  6
CONTINUOUS
 62
    4
 10
213.99078
 20
84.907332
 11
214.5084
 21
82.975476
  0
LINE
  8
0-1
  6
CONTINUOUS
 62
    4
 10
213.99078
 20
84.907332
 11
213.47313
 21
82.975476
  0
LINE
  8
0-1
  6
CONTINUOUS
 62
    4
 10
188.73758
 20
84.907332
 11
215.06693
 21
84.907332
  0
LINE
  8
0-0
  6
CONTINUOUS
 62
    7
 10
153.94461
 20
95.057549
 11
187.14459
 21
84.907332
  0
LINE
  8
0-1
  6
CONTINUOUS
 62
    4
 10
188.61279
 20
84.45845
 11
213.53251
 21
76.839765
  0
LINE
  8
0-1
  6
CONTINUOUS
 62
    4
 10
122.13034
 20
220.10788
 11
122.64797
 21
218.17603
  0
LINE
  8
0-1
  6
CONTINUOUS
 62
    4
 10
122.13034
 20
220.10788
 11
121.61272
 21
218.17603
  0
LINE
  8
0-1
  6
CONTINUOUS
 62
    4
 10
122.13034
 20
95.057549
 11
121.61272
 21
96.989405
  0
LINE
  8
0-1
  6
CONTINUOUS
 62
    4
 10
122.13034
 20
95.057549
 11
122.64797
 21
96.989405
  0
LINE
  8
ADD_LINE
  6
DOT
 62
    4
 10
130.70232
 20
171.86136
 11
141.08978
 21
171.86136
  0
LINE
  8
ADD_LINE
  6
DOT
 62
    4
 10
135.39343
 20
170.85612
 11
135.39343
 21
185.59956
  0
LINE
  8
ADD_LINE
  6
DOT
 62
    4
 10
139.39344
 20
170.85612
 11
139.39344
 21
185.59956
  0
LINE
  8
0-1
  6
CONTINUOUS
 62
    4
 10
153.94461
 20
75.28813
 11
153.94461
 21
73.888133
  0
LINE
  8
0-1
  6
CONTINUOUS
 62
    4
 10
152.14459
 20
75.28813
 11
152.14459
 21
73.888133
  0
LINE
  8
0-1
  6
CONTINUOUS
 62
    4
 10
153.94461
 20
75.28813
 11
155.87646
 21
74.770496
  0
LINE
  8
0-1
  6
CONTINUOUS
 62
    4
 10
152.14459
 20
75.28813
 11
150.21273
 21
75.805765
  0
LINE
  8
0-1
  6
CONTINUOUS
 62
    4
 10
152.14459
 20
75.28813
 11
150.21273
 21
74.770496
  0
LINE
  8
0-1
  6
CONTINUOUS
 62
    4
 10
153.94461
 20
75.28813
 11
155.87646
 21
75.805765
  0
LINE
  8
0-1
  6
CONTINUOUS
 62
    4
 10
160.5411
 20
75.28813
 11
138.01394
 21
75.28813
  0
LINE
  8
0-0
  6
CONTINUOUS
 62
    7
 10
164.14457
 20
325.40792
 11
177.14456
 21
325.40792
  0
LINE
  8
0-0
  6
CONTINUOUS
 62
    7
 10
164.14457
 20
325.40792
 11
164.14457
 21
322.80791
  0
LINE
  8
0-0
  6
CONTINUOUS
 62
    7
 10
164.14457
 20
322.80791
 11
177.14456
 21
322.80791
  0
LINE
  8
0-0
  6
CONTINUOUS
 62
    7
 10
164.14457
 20
325.40792
 11
163.394
 21
324.1079
  0
LINE
  8
0-1
  6
CONTINUOUS
 62
    4
 10
134.15338
 20
220.10788
 11
134.15338
 21
303.60788
  0
LINE
  8
0-1
  6
CONTINUOUS
 62
    4
 10
150.85032
 20
303.60788
 11
132.7534
 21
303.60788
  0
LINE
  8
0-1
  6
CONTINUOUS
 62
    4
 10
134.15338
 20
220.10788
 11
133.63576
 21
222.03974
  0
LINE
  8
0-1
  6
CONTINUOUS
 62
    4
 10
134.15338
 20
220.10788
 11
134.671
 21
222.03974
  0
LINE
  8
0-1
  6
CONTINUOUS
 62
    4
 10
134.15338
 20
303.60788
 11
133.63576
 21
301.676
  0
LINE
  8
0-1
  6
CONTINUOUS
 62
    4
 10
134.15338
 20
303.60788
 11
134.671
 21
301.676
  0
LINE
  8
0-1
  6
CONTINUOUS
 62
    4
 10
201.74092
 20
220.10788
 11
201.74092
 21
297.10788
  0
LINE
  8
0-1
  6
CONTINUOUS
 62
    4
 10
201.74092
 20
220.10788
 11
203.14092
 21
220.10788
  0
LINE
  8
0-1
  6
CONTINUOUS
 62
    4
 10
201.74092
 20
220.10788
 11
201.22331
 21
222.03974
  0
LINE
  8
0-1
  6
CONTINUOUS
 62
    4
 10
201.74092
 20
220.10788
 11
202.25857
 21
222.03974
  0
LINE
  8
0-1
  6
CONTINUOUS
 62
    4
 10
201.74092
 20
297.10788
 11
201.22331
 21
295.17608
  0
LINE
  8
0-1
  6
CONTINUOUS
 62
    4
 10
201.74092
 20
297.10788
 11
202.25857
 21
295.17608
  0
LINE
  8
0-0
  6
CONTINUOUS
 62
    7
 10
168.1446
 20
297.10788
 11
154.14454
 21
297.10788
  0
LINE
  8
0-1
  6
CONTINUOUS
 62
    4
 10
169.31627
 20
297.10788
 11
203.14092
 21
297.10788
  0
LINE
  8
0-0
  6
CONTINUOUS
 62
    7
 10
154.14454
 20
303.60788
 11
154.14454
 21
220.10788
  0
LINE
  8
0-0
  6
CONTINUOUS
 62
    7
 10
168.1446
 20
220.10788
 11
168.1446
 21
313.10789
  0
LINE
  8
0-0
  6
CONTINUOUS
 62
    7
 10
152.14459
 20
303.60788
 11
152.14459
 21
220.10788
  0
LINE
  8
0-1
  6
CONTINUOUS
 62
    4
 10
154.14454
 20
284.57679
 11
154.14454
 21
283.17678
  0
LINE
  8
0-1
  6
CONTINUOUS
 62
    4
 10
152.14459
 20
284.57679
 11
152.14459
 21
283.17678
  0
LINE
  8
0-1
  6
CONTINUOUS
 62
    4
 10
154.14454
 20
284.57679
 11
156.0764
 21
285.09444
  0
LINE
  8
0-1
  6
CONTINUOUS
 62
    4
 10
154.14454
 20
284.57679
 11
156.0764
 21
284.05914
  0
LINE
  8
0-1
  6
CONTINUOUS
 62
    4
 10
154.14454
 20
284.57679
 11
168.1446
 21
284.57679
  0
LINE
  8
0-1
  6
CONTINUOUS
 62
    4
 10
154.14454
 20
284.57679
 11
154.14454
 21
283.17678
  0
LINE
  8
0-1
  6
CONTINUOUS
 62
    4
 10
168.1446
 20
284.57679
 11
168.1446
 21
283.17678
  0
LINE
  8
0-1
  6
CONTINUOUS
 62
    4
 10
154.14454
 20
284.57679
 11
156.0764
 21
285.09444
  0
LINE
  8
0-1
  6
CONTINUOUS
 62
    4
 10
154.14454
 20
284.57679
 11
156.0764
 21
284.05914
  0
LINE
  8
0-1
  6
CONTINUOUS
 62
    4
 10
168.1446
 20
284.57679
 11
166.21274
 21
285.09444
  0
LINE
  8
0-1
  6
CONTINUOUS
 62
    4
 10
168.1446
 20
284.57679
 11
166.21274
 21
284.05914
  0
LINE
  8
0-1
  6
CONTINUOUS
 62
    4
 10
152.14459
 20
284.57679
 11
150.21273
 21
285.09444
  0
LINE
  8
0-1
  6
CONTINUOUS
 62
    4
 10
152.14459
 20
284.57679
 11
150.21273
 21
284.05914
  0
LINE
  8
0-1
  6
CONTINUOUS
 62
    4
 10
154.14454
 20
284.57679
 11
137.10356
 21
284.57679
  0
LINE
  8
0-1
  6
CONTINUOUS
 62
    4
 10
213.24368
 20
220.10788
 11
213.24368
 21
313.10789
  0
LINE
  8
0-1
  6
CONTINUOUS
 62
    4
 10
213.24368
 20
220.10788
 11
214.64366
 21
220.10788
  0
LINE
  8
0-1
  6
CONTINUOUS
 62
    4
 10
213.24368
 20
220.10788
 11
212.72603
 21
222.03974
  0
LINE
  8
0-1
  6
CONTINUOUS
 62
    4
 10
213.24368
 20
220.10788
 11
213.7613
 21
222.03974
  0
LINE
  8
0-1
  6
CONTINUOUS
 62
    4
 10
213.24368
 20
313.10789
 11
212.72603
 21
311.17606
  0
LINE
  8
0-1
  6
CONTINUOUS
 62
    4
 10
213.24368
 20
313.10789
 11
213.7613
 21
311.17606
  0
LINE
  8
0-0
  6
CONTINUOUS
 62
    7
 10
168.1446
 20
313.10789
 11
177.14456
 21
313.10789
  0
LINE
  8
0-1
  6
CONTINUOUS
 62
    4
 10
178.48075
 20
313.10789
 11
214.64366
 21
313.10789
  0
LINE
  8
0-1
  6
CONTINUOUS
 62
    4
 10
224.31829
 20
220.10788
 11
224.31829
 21
348.56586
  0
LINE
  8
0-1
  6
CONTINUOUS
 62
    4
 10
224.31829
 20
220.10788
 11
225.7183
 21
220.10788
  0
LINE
  8
0-1
  6
CONTINUOUS
 62
    4
 10
224.31829
 20
220.10788
 11
223.80067
 21
222.03974
  0
LINE
  8
0-1
  6
CONTINUOUS
 62
    4
 10
224.31829
 20
220.10788
 11
224.83591
 21
222.03974
  0
LINE
  8
0-1
  6
CONTINUOUS
 62
    4
 10
224.31829
 20
348.56586
 11
224.83591
 21
346.634
  0
LINE
  8
0-1
  6
CONTINUOUS
 62
    4
 10
224.31829
 20
348.56586
 11
223.80067
 21
346.634
  0
LINE
  8
0-1
  6
CONTINUOUS
 62
    4
 10
178.82067
 20
348.56586
 11
225.7183
 21
348.56586
  0
LINE
  8
0-1
  6
CONTINUOUS
 62
    4
 10
188.96697
 20
352.18033
 11
224.31933
 21
362.98859
  0
LINE
  8
0-1
  6
CONTINUOUS
 62
    4
 10
224.31829
 20
348.56586
 11
223.80067
 21
350.49774
  0
LINE
  8
0-1
  6
CONTINUOUS
 62
    4
 10
224.31829
 20
348.56586
 11
224.83591
 21
350.49774
  0
LINE
  8
0-1
  6
CONTINUOUS
 62
    4
 10
222.257
 20
362.35809
 11
223.31687
 21
360.662
  0
LINE
  8
0-1
  6
CONTINUOUS
 62
    4
 10
222.257
 20
362.35809
 11
222.32681
 21
360.35928
  0
LINE
  8
0-1
  6
CONTINUOUS
 62
    4
 10
190.93541
 20
240.14076
 11
198.99944
 21
240.14076
  0
LINE
  8
0-1
  6
CONTINUOUS
 62
    4
 10
190.93541
 20
232.14079
 11
198.99944
 21
232.14079
  0
LINE
  8
0-1
  6
CONTINUOUS
 62
    4
 10
190.93541
 20
240.14076
 11
190.93541
 21
232.14079
  0
LINE
  8
0-1
  6
CONTINUOUS
 62
    4
 10
198.99944
 20
240.14076
 11
198.99944
 21
232.14079
  0
LINE
  8
0-1
  6
CONTINUOUS
 62
    4
 10
89.403365
 20
239.90273
 11
89.403365
 21
231.90275
  0
LINE
  8
0-1
  6
CONTINUOUS
 62
    4
 10
132.00365
 20
231.90275
 11
89.403365
 21
231.90275
  0
LINE
  8
0-1
  6
CONTINUOUS
 62
    4
 10
132.00365
 20
239.90273
 11
132.00365
 21
231.90275
  0
LINE
  8
0-1
  6
CONTINUOUS
 62
    4
 10
132.00365
 20
239.90273
 11
89.403365
 21
239.90273
  0
LINE
  8
0-1
  6
CONTINUOUS
 62
    4
 10
99.009358
 20
239.90273
 11
99.009358
 21
231.90275
  0
LINE
  8
0-1
  6
CONTINUOUS
 62
    4
 10
123.23302
 20
239.90273
 11
123.23302
 21
231.90275
  0
LINE
  8
0-1
  6
CONTINUOUS
 62
    4
 10
168.1446
 20
235.90274
 11
170.07644
 21
236.42039
  0
LINE
  8
0-1
  6
CONTINUOUS
 62
    4
 10
168.1446
 20
235.90274
 11
170.07644
 21
235.38509
  0
LINE
  8
0-1
  6
CONTINUOUS
 62
    4
 10
149.13797
 20
235.90274
 11
154.14454
 21
233.01221
  0
LINE
  8
0-1
  6
CONTINUOUS
 62
    4
 10
149.13797
 20
235.90274
 11
154.14454
 21
238.79329
  0
LINE
  8
0-1
  6
CONTINUOUS
 62
    4
 10
154.11382
 20
233.02997
 11
154.14454
 21
233.06069
  0
LINE
  8
0-1
  6
CONTINUOUS
 62
    4
 10
153.9345
 20
233.13347
 11
154.14454
 21
233.34353
  0
LINE
  8
0-1
  6
CONTINUOUS
 62
    4
 10
153.75518
 20
233.23699
 11
154.14454
 21
233.62638
  0
LINE
  8
0-1
  6
CONTINUOUS
 62
    4
 10
153.57588
 20
233.34054
 11
154.14454
 21
233.9092
  0
LINE
  8
0-1
  6
CONTINUOUS
 62
    4
 10
153.39656
 20
233.44406
 11
154.14454
 21
234.19205
  0
LINE
  8
0-1
  6
CONTINUOUS
 62
    4
 10
153.21724
 20
233.54759
 11
154.14454
 21
234.47487
  0
LINE
  8
0-1
  6
CONTINUOUS
 62
    4
 10
153.03795
 20
233.65111
 11
154.14454
 21
234.75772
  0
LINE
  8
0-1
  6
CONTINUOUS
 62
    4
 10
152.85862
 20
233.75464
 11
154.14454
 21
235.04054
  0
LINE
  8
0-1
  6
CONTINUOUS
 62
    4
 10
152.67932
 20
233.85816
 11
154.14454
 21
235.32341
  0
LINE
  8
0-1
  6
CONTINUOUS
 62
    4
 10
152.50002
 20
233.96169
 11
154.14454
 21
235.60623
  0
LINE
  8
0-1
  6
CONTINUOUS
 62
    4
 10
152.32068
 20
234.06518
 11
154.14454
 21
235.88905
  0
LINE
  8
0-1
  6
CONTINUOUS
 62
    4
 10
152.14138
 20
234.16871
 11
154.14454
 21
236.17192
  0
LINE
  8
0-1
  6
CONTINUOUS
 62
    4
 10
151.96207
 20
234.27226
 11
154.14454
 21
236.45472
  0
LINE
  8
0-1
  6
CONTINUOUS
 62
    4
 10
151.78275
 20
234.37581
 11
154.14454
 21
236.73759
  0
LINE
  8
0-1
  6
CONTINUOUS
 62
    4
 10
151.60344
 20
234.47933
 11
154.14454
 21
237.02044
  0
LINE
  8
0-1
  6
CONTINUOUS
 62
    4
 10
151.42412
 20
234.58283
 11
154.14454
 21
237.30326
  0
LINE
  8
0-1
  6
CONTINUOUS
 62
    4
 10
151.24482
 20
234.68636
 11
154.14454
 21
237.5861
  0
LINE
  8
0-1
  6
CONTINUOUS
 62
    4
 10
151.0655
 20
234.78991
 11
154.14454
 21
237.86895
  0
LINE
  8
0-1
  6
CONTINUOUS
 62
    4
 10
150.8862
 20
234.89343
 11
154.14454
 21
238.15177
  0
LINE
  8
0-1
  6
CONTINUOUS
 62
    4
 10
150.70688
 20
234.99696
 11
154.14454
 21
238.43462
  0
LINE
  8
0-1
  6
CONTINUOUS
 62
    4
 10
150.52757
 20
235.10048
 11
154.14454
 21
238.71744
  0
LINE
  8
0-1
  6
CONTINUOUS
 62
    4
 10
150.34826
 20
235.204
 11
153.65478
 21
238.51052
  0
LINE
  8
0-1
  6
CONTINUOUS
 62
    4
 10
150.16894
 20
235.30753
 11
152.98556
 21
238.12415
  0
LINE
  8
0-1
  6
CONTINUOUS
 62
    4
 10
149.98964
 20
235.41105
 11
152.31637
 21
237.73778
  0
LINE
  8
0-1
  6
CONTINUOUS
 62
    4
 10
149.81032
 20
235.51455
 11
151.64718
 21
237.35144
  0
LINE
  8
0-1
  6
CONTINUOUS
 62
    4
 10
149.631
 20
235.61813
 11
150.97797
 21
236.96509
  0
LINE
  8
0-1
  6
CONTINUOUS
 62
    4
 10
149.4517
 20
235.72165
 11
150.3088
 21
236.57869
  0
LINE
  8
0-1
  6
CONTINUOUS
 62
    4
 10
149.27238
 20
235.82518
 11
149.63958
 21
236.19238
  0
LINE
  8
ADD_LINE
  6
DOT
 62
    4
 10
126.14645
 20
271.69847
 11
135.91308
 21
271.69847
  0
LINE
  8
ADD_LINE
  6
DOT
 62
    4
 10
130.961
 20
271.83606
 11
130.961
 21
283.66603
  0
LINE
  8
ADD_LINE
  6
DOT
 62
    4
 10
134.96099
 20
271.83606
 11
134.96099
 21
283.66603
  0
LINE
  8
0-1
  6
CONTINUOUS
 62
    4
 10
187.14459
 20
343.33414
 11
187.14459
 21
341.93413
  0
LINE
  8
0-1
  6
CONTINUOUS
 62
    4
 10
187.14459
 20
343.33414
 11
189.07643
 21
343.85179
  0
LINE
  8
0-1
  6
CONTINUOUS
 62
    4
 10
187.14459
 20
343.33414
 11
189.07643
 21
342.81649
  0
LINE
  8
0-1
  6
CONTINUOUS
 62
    4
 10
183.14455
 20
343.33414
 11
181.21269
 21
343.85179
  0
LINE
  8
0-1
  6
CONTINUOUS
 62
    4
 10
183.14455
 20
343.33414
 11
181.21269
 21
342.81649
  0
LINE
  8
0-1
  6
CONTINUOUS
 62
    4
 10
200.73828
 20
343.33414
 11
178.79579
 21
343.33414
  0
LINE
  8
ADD_LINE
  6
DOT
 62
    7
 10
183.14455
 20
356.79026
 11
183.14455
 21
348.09521
  0
LINE
  8
0-1
  6
CONTINUOUS
 62
    4
 10
183.14455
 20
349.89948
 11
183.14455
 21
341.93413
  0
LINE
  8
0-1
  6
CONTINUOUS
 62
    4
 10
396.44492
 20
341.10053
 11
427.56709
 21
395.00569
  0
LINE
  8
ADD_LINE
  6
DOT
 62
    4
 10
427.56709
 20
395.00569
 11
427.56709
 21
372.83521
  0
LINE
  8
0-1
  6
CONTINUOUS
 62
    4
 10
396.44492
 20
341.10053
 11
396.96257
 21
343.03236
  0
LINE
  8
0-1
  6
CONTINUOUS
 62
    4
 10
396.44492
 20
341.10053
 11
397.85913
 21
342.51471
  0
LINE
  8
0-1
  6
CONTINUOUS
 62
    4
 10
427.56709
 20
395.00569
 11
468.12187
 21
395.00569
  0
LINE
  8
0-1
  6
CONTINUOUS
 62
    4
 10
182.11417
 20
353.77052
 11
222.38836
 21
393.7946
  0
LINE
  8
ADD_LINE
  6
DOT
 62
    4
 10
222.38836
 20
393.7946
 11
222.38836
 21
381.51716
  0
LINE
  8
0-1
  6
CONTINUOUS
 62
    4
 10
266.38171
 20
393.7946
 11
222.38836
 21
393.7946
  0
LINE
  8
0-1
  6
CONTINUOUS
 62
    4
 10
266.38171
 20
386.7946
 11
215.34456
 21
386.7946
  0
LINE
  8
0-1
  6
CONTINUOUS
 62
    4
 10
182.11417
 20
353.77052
 11
183.11956
 21
355.49942
  0
LINE
  8
0-1
  6
CONTINUOUS
 62
    4
 10
182.11417
 20
353.77052
 11
183.84931
 21
354.7651
  0
LINE
  8
ADD_LINE
  6
DOT
 62
    4
 10
519.71829
 20
127.12522
 11
519.71829
 21
103.62986
  0
LINE
  8
0-1
  6
CONTINUOUS
 62
    4
 10
423.52566
 20
388.00569
 11
468.12187
 21
388.00569
  0
LINE
  8
0-1
  6
CONTINUOUS
 62
    4
 10
419.48418
 20
381.00569
 11
468.12187
 21
381.00569
  0
LINE
  8
0-1
  6
CONTINUOUS
 62
    4
 10
415.44278
 20
374.00572
 11
468.12187
 21
374.00572
  0
LINE
  8
0-1
  6
CONTINUOUS
 62
    4
 10
462.10623
 20
253.78404
 11
512.63736
 21
341.30649
  0
LINE
  8
0-1
  6
CONTINUOUS
 62
    4
 10
512.63736
 20
341.30649
 11
551.93017
 21
341.30649
  0
LINE
  8
ADD_LINE
  6
DOT
 62
    4
 10
512.63736
 20
341.30649
 11
512.63736
 21
314.08057
  0
LINE
  8
0-1
  6
CONTINUOUS
 62
    4
 10
508.59595
 20
334.30646
 11
551.93017
 21
334.30646
  0
LINE
  8
0-1
  6
CONTINUOUS
 62
    4
 10
504.55444
 20
327.30649
 11
551.93017
 21
327.30649
  0
LINE
  8
0-1
  6
CONTINUOUS
 62
    4
 10
500.51293
 20
320.30649
 11
551.93017
 21
320.30649
  0
LINE
  8
0-1
  6
CONTINUOUS
 62
    4
 10
462.10623
 20
253.78404
 11
462.62385
 21
255.7159
  0
LINE
  8
0-1
  6
CONTINUOUS
 62
    4
 10
462.10623
 20
253.78404
 11
463.52049
 21
255.19825
  0
LINE
  8
0-1
  6
CONTINUOUS
 62
    4
 10
518.4144
 20
297.84054
 11
563.57558
 21
297.84054
  0
LINE
  8
ADD_LINE
  6
DOT
 62
    4
 10
518.4144
 20
297.84054
 11
518.4144
 21
263.29841
  0
LINE
  8
0-1
  6
CONTINUOUS
 62
    4
 10
455.63917
 20
189.11053
 11
518.4144
 21
297.84054
  0
LINE
  8
0-1
  6
CONTINUOUS
 62
    4
 10
514.37299
 20
290.84052
 11
563.57558
 21
290.84052
  0
LINE
  8
0-1
  6
CONTINUOUS
 62
    4
 10
510.33159
 20
283.84054
 11
563.57558
 21
283.84054
  0
LINE
  8
0-1
  6
CONTINUOUS
 62
    4
 10
506.29008
 20
276.84052
 11
563.57558
 21
276.84052
  0
LINE
  8
0-1
  6
CONTINUOUS
 62
    4
 10
455.63917
 20
189.11053
 11
456.1568
 21
191.04239
  0
LINE
  8
0-1
  6
CONTINUOUS
 62
    4
 10
455.63917
 20
189.11053
 11
457.05344
 21
190.52474
  0
LINE
  8
0-8
  6
CONTINUOUS
 62
    7
 10
167.96315
 20
297.10788
 11
168.1446
 21
297.28934
  0
LINE
  8
0-8
  6
CONTINUOUS
 62
    7
 10
175.47787
 20
313.10789
 11
177.14456
 21
314.7746
  0
LINE
  8
0-8
  6
CONTINUOUS
 62
    7
 10
172.64945
 20
313.10789
 11
177.14456
 21
317.60301
  0
LINE
  8
0-8
  6
CONTINUOUS
 62
    7
 10
169.82105
 20
313.10789
 11
177.14456
 21
320.4314
  0
LINE
  8
0-8
  6
CONTINUOUS
 62
    7
 10
185.07676
 20
350.99095
 11
187.14459
 21
353.05879
  0
LINE
  8
0-8
  6
CONTINUOUS
 62
    7
 10
152.14459
 20
337.85773
 11
153.89481
 21
339.60791
  0
LINE
  8
0-8
  6
CONTINUOUS
 62
    7
 10
155.56634
 20
344.10787
 11
157.79334
 21
346.33487
  0
LINE
  8
0-8
  6
CONTINUOUS
 62
    7
 10
158.39476
 20
344.10787
 11
161.86729
 21
347.5804
  0
LINE
  8
0-8
  6
CONTINUOUS
 62
    7
 10
161.2232
 20
344.10787
 11
165.94124
 21
348.82595
  0
LINE
  8
0-8
  6
CONTINUOUS
 62
    7
 10
164.05162
 20
344.10787
 11
170.0152
 21
350.07148
  0
LINE
  8
0-8
  6
CONTINUOUS
 62
    7
 10
166.88002
 20
344.10787
 11
174.08914
 21
351.31698
  0
LINE
  8
0-8
  6
CONTINUOUS
 62
    7
 10
169.70845
 20
344.10787
 11
178.16308
 21
352.5625
  0
LINE
  8
0-8
  6
CONTINUOUS
 62
    7
 10
176.36524
 20
345.1079
 11
177.14456
 21
345.88722
  0
LINE
  8
0-0
  6
CONTINUOUS
 62
    7
 10
153.94461
 20
345.15822
 11
153.94461
 21
339.60791
  0
LINE
  8
0-8
  6
CONTINUOUS
 62
    7
 10
153.94461
 20
339.65774
 11
154.39477
 21
340.10791
  0
LINE
  8
0-8
  6
CONTINUOUS
 62
    7
 10
152.14459
 20
335.02926
 11
157.22321
 21
340.10791
  0
LINE
  8
0-8
  6
CONTINUOUS
 62
    7
 10
152.14459
 20
332.20087
 11
160.05163
 21
340.10791
  0
LINE
  8
0-8
  6
CONTINUOUS
 62
    7
 10
152.14459
 20
329.37245
 11
162.88003
 21
340.10791
  0
LINE
  8
0-8
  6
CONTINUOUS
 62
    7
 10
152.14459
 20
326.54401
 11
165.70846
 21
340.10791
  0
LINE
  8
0-8
  6
CONTINUOUS
 62
    7
 10
152.14459
 20
323.7156
 11
168.53685
 21
340.10791
  0
LINE
  8
0-8
  6
CONTINUOUS
 62
    7
 10
152.14459
 20
320.88721
 11
171.36525
 21
340.10791
  0
LINE
  8
0-8
  6
CONTINUOUS
 62
    7
 10
152.14459
 20
318.05879
 11
173.19368
 21
339.10788
  0
LINE
  8
0-8
  6
CONTINUOUS
 62
    7
 10
152.14459
 20
315.23035
 11
176.02209
 21
339.10788
  0
LINE
  8
0-8
  6
CONTINUOUS
 62
    7
 10
166.32106
 20
309.60787
 11
168.1446
 21
311.43142
  0
LINE
  8
0-8
  6
CONTINUOUS
 62
    7
 10
152.14459
 20
303.91669
 11
154.83576
 21
306.60786
  0
LINE
  8
0-8
  6
CONTINUOUS
 62
    7
 10
154.14454
 20
303.08822
 11
157.66418
 21
306.60786
  0
LINE
  8
0-8
  6
CONTINUOUS
 62
    7
 10
166.47793
 20
304.10793
 11
168.1446
 21
305.77459
  0
LINE
  8
0-0
  6
CONTINUOUS
 62
    7
 10
154.14454
 20
302.80784
 11
164.14463
 21
302.80784
  0
LINE
  8
0-8
  6
CONTINUOUS
 62
    7
 10
156.6926
 20
302.80784
 11
160.4926
 21
306.60786
  0
LINE
  8
0-8
  6
CONTINUOUS
 62
    7
 10
159.52101
 20
302.80784
 11
163.32101
 21
306.60786
  0
LINE
  8
0-8
  6
CONTINUOUS
 62
    7
 10
162.34943
 20
302.80784
 11
166.14943
 21
306.60786
  0
LINE
  8
0-8
  6
CONTINUOUS
 62
    7
 10
154.14454
 20
297.43139
 11
156.12102
 21
299.40785
  0
LINE
  8
0-8
  6
CONTINUOUS
 62
    7
 10
156.64947
 20
297.10788
 11
158.94944
 21
299.40785
  0
LINE
  8
0-8
  6
CONTINUOUS
 62
    7
 10
159.47789
 20
297.10788
 11
161.77785
 21
299.40785
  0
LINE
  8
0-8
  6
CONTINUOUS
 62
    7
 10
162.3063
 20
297.10788
 11
164.14463
 21
298.94621
  0
LINE
  8
0-8
  6
CONTINUOUS
 62
    7
 10
165.13473
 20
297.10788
 11
166.13468
 21
298.10786
  0
LINE
  8
0-8
  6
CONTINUOUS
 62
    7
 10
152.14459
 20
312.40193
 11
163.56112
 21
323.81848
  0
LINE
  8
0-0
  6
CONTINUOUS
 62
    7
 10
163.394
 20
324.1079
 11
164.14457
 21
322.80791
  0
LINE
  8
0-8
  6
CONTINUOUS
 62
    7
 10
152.14459
 20
309.57352
 11
165.37896
 21
322.80791
  0
LINE
  8
0-8
  6
CONTINUOUS
 62
    7
 10
155.00739
 20
309.60787
 11
168.20739
 21
322.80791
  0
LINE
  8
0-8
  6
CONTINUOUS
 62
    7
 10
157.8358
 20
309.60787
 11
171.0358
 21
322.80791
  0
LINE
  8
0-8
  6
CONTINUOUS
 62
    7
 10
160.66422
 20
309.60787
 11
173.86423
 21
322.80791
  0
LINE
  8
0-8
  6
CONTINUOUS
 62
    7
 10
163.49263
 20
309.60787
 11
176.69265
 21
322.80791
  0
LINE
  8
0-0
  6
CONTINUOUS
 62
    7
 10
167.14456
 20
325.60788
 11
167.14456
 21
322.6079
  0
LINE
  8
0-8
  6
CONTINUOUS
 62
    7
 10
165.15055
 20
325.40792
 11
177.14456
 21
337.40192
  0
LINE
  8
0-8
  6
CONTINUOUS
 62
    7
 10
167.97896
 20
325.40792
 11
177.14456
 21
334.57351
  0
LINE
  8
0-8
  6
CONTINUOUS
 62
    7
 10
170.8074
 20
325.40792
 11
177.14456
 21
331.74506
  0
LINE
  8
0-8
  6
CONTINUOUS
 62
    7
 10
173.63579
 20
325.40792
 11
177.14456
 21
328.91667
  0
LINE
  8
0-1
  6
CONTINUOUS
 62
    4
 10
177.14456
 20
330.46208
 11
177.14456
 21
329.06207
  0
LINE
  8
0-1
  6
CONTINUOUS
 62
    4
 10
152.14459
 20
330.46208
 11
152.14459
 21
329.06207
  0
LINE
  8
0-1
  6
CONTINUOUS
 62
    4
 10
177.14456
 20
330.46208
 11
179.07643
 21
330.97973
  0
LINE
  8
0-1
  6
CONTINUOUS
 62
    4
 10
177.14456
 20
330.46208
 11
179.07643
 21
329.94443
  0
LINE
  8
0-1
  6
CONTINUOUS
 62
    4
 10
152.14459
 20
330.46208
 11
150.21273
 21
330.97973
  0
LINE
  8
0-1
  6
CONTINUOUS
 62
    4
 10
152.14459
 20
330.46208
 11
150.21273
 21
329.94443
  0
LINE
  8
0-1
  6
CONTINUOUS
 62
    4
 10
182.78893
 20
330.46208
 11
130.39341
 21
330.46208
  0
LINE
  8
0-8
  6
CONTINUOUS
 62
    7
 10
173.53685
 20
345.1079
 11
180.93286
 21
352.5039
  0
LINE
  8
0-8
  6
CONTINUOUS
 62
    7
 10
183.99767
 20
352.74028
 11
186.31097
 21
355.05361
  0
LINE
  8
0-0
  6
CENTER1
 62
    7
 10
380.80484
 20
368.04064
 11
380.80484
 21
72.792853
  0
LINE
  8
0-0
  6
CENTER1
 62
    7
 10
326.921
 20
350.19506
 11
380.80487
 21
220.1079
  0
LINE
  8
0-0
  6
CENTER1
 62
    7
 10
290.91257
 20
310.00015
 11
281.24046
 21
319.67227
  0
LINE
  8
0-0
  6
CENTER1
 62
    7
 10
280.42799
 20
298.11893
 11
287.7227
 21
292.27168
  0
LINE
  8
0-0
  6
CENTER1
 62
    7
 10
254.84589
 20
237.30018
 11
264.12356
 21
236.15035
  0
LINE
  8
0-0
  6
CENTER1
 62
    7
 10
290.9126
 20
130.21562
 11
281.24051
 21
120.54351
  0
LINE
  8
0-0
  6
CENTER1
 62
    7
 10
303.74191
 20
119.00133
 11
309.50889
 21
126.35951
  0
LINE
  8
0-0
  6
CENTER1
 62
    7
 10
363.07174
 20
94.223928
 11
364.33574
 21
103.48612
  0
LINE
  8
0-0
  6
CENTER1
 62
    7
 10
480.36934
 20
120.54352
 11
470.6972
 21
130.21566
  0
LINE
  8
0-0
  6
CENTER1
 62
    7
 10
482.29892
 20
143.55596
 11
474.75929
 21
149.08372
  0
LINE
  8
0-0
  6
CENTER1
 62
    7
 10
506.78139
 20
203.04445
 11
497.54966
 21
204.53466
  0
LINE
  8
0-0
  6
CENTER1
 62
    7
 10
470.69714
 20
310.00015
 11
480.36928
 21
319.67227
  0
LINE
  8
0-0
  6
CENTER1
 62
    7
 10
457.26578
 20
321.67054
 11
451.75028
 21
314.12193
  0
LINE
  8
0-0
  6
CENTER1
 62
    7
 10
397.05364
 20
346.19207
 11
395.94393
 21
336.90991
  0
LINE
  8
0-0
  6
CENTER1
 62
    7
 10
250.71775
 20
273.99176
 11
315.37858
 21
247.2083
  0
LINE
  8
0-0
  6
CENTER1
 62
    7
 10
315.3786
 20
193.00745
 11
249.38424
 21
165.67168
  0
LINE
  8
0-0
  6
CENTER1
 62
    7
 10
353.70443
 20
154.68163
 11
326.92102
 21
90.020781
  0
LINE
  8
0-0
  6
CENTER1
 62
    7
 10
407.90532
 20
154.68163
 11
434.68872
 21
90.020767
  0
LINE
  8
0-0
  6
CENTER1
 62
    7
 10
446.23114
 20
193.00746
 11
510.89199
 21
166.22401
  0
LINE
  8
0-0
  6
CENTER1
 62
    7
 10
446.23114
 20
247.20835
 11
509.45768
 21
273.39764
  0
LINE
  8
0-0
  6
CENTER1
 62
    7
 10
434.68872
 20
350.19503
 11
407.90532
 21
285.53415
  0
LINE
  8
0-0
  6
CONTINUOUS
 62
    7
 10
153.94461
 20
100.60788
 11
153.94461
 21
220.10788
  0
LINE
  8
0-0
  6
CONTINUOUS
 62
    4
 10
380.80484
 20
266.28051
 11
378.87299
 21
265.76286
  0
LINE
  8
0-0
  6
CONTINUOUS
 62
    4
 10
380.80484
 20
266.28051
 11
378.87299
 21
266.79816
  0
LINE
  8
0-0
  6
CONTINUOUS
 62
    4
 10
363.13537
 20
262.76584
 11
364.72209
 21
263.98338
  0
LINE
  8
0-0
  6
CONTINUOUS
 62
    4
 10
363.13537
 20
262.76584
 11
365.11827
 21
263.0269
  0
LINE
  8
0-1
  6
CONTINUOUS
 62
    4
 10
476.88839
 20
180.3088
 11
519.71829
 21
106.12519
  0
LINE
  8
0-1
  6
CONTINUOUS
 62
    4
 10
519.71829
 20
106.12519
 11
560.95015
 21
106.12519
  0
LINE
  8
0-1
  6
CONTINUOUS
 62
    4
 10
515.67683
 20
113.12516
 11
560.95015
 21
113.12516
  0
LINE
  8
0-1
  6
CONTINUOUS
 62
    4
 10
511.63538
 20
120.12519
 11
560.95015
 21
120.12519
  0
LINE
  8
0-1
  6
CONTINUOUS
 62
    4
 10
507.59392
 20
127.12522
 11
560.95015
 21
127.12522
  0
LINE
  8
0-1
  6
CONTINUOUS
 62
    4
 10
476.88839
 20
180.3088
 11
478.30259
 21
178.8946
  0
LINE
  8
0-1
  6
CONTINUOUS
 62
    4
 10
476.88839
 20
180.3088
 11
477.40601
 21
178.37695
  0
LINE
  8
0-1
  6
CONTINUOUS
 62
    4
 10
380.80487
 20
220.10808
 11
429.30487
 21
304.11253
  0
LINE
  8
0-1
  6
CONTINUOUS
 62
    4
 10
429.30487
 20
304.11253
 11
427.89066
 21
302.69832
  0
LINE
  8
0-1
  6
CONTINUOUS
 62
    4
 10
429.30487
 20
304.11253
 11
428.78725
 21
302.18068
  0
LINE
  8
0-1
  6
CONTINUOUS
 62
    4
 10
380.80484
 20
220.10808
 11
452.83728
 21
312.30533
  0
LINE
  8
0-1
  6
CONTINUOUS
 62
    4
 10
452.83728
 20
312.30533
 11
451.23998
 21
311.1017
  0
LINE
  8
0-1
  6
CONTINUOUS
 62
    4
 10
452.83728
 20
312.30533
 11
452.05582
 21
310.46433
  0
LINE
  8
0-9
  6
CONTINUOUS
 62
    7
 10
456.97194
 20
303.34618
 11
448.46269
 21
294.83698
  0
LINE
  8
0-9
  6
CONTINUOUS
 62
    7
 10
428.53015
 20
322.26139
 11
423.95388
 21
311.2133
  0
LINE
  8
0-9
  6
CONTINUOUS
 62
    7
 10
419.32026
 20
326.15791
 11
414.71508
 21
315.04006
  0
LINE
  8
0-9
  6
CONTINUOUS
 62
    7
 10
385.80494
 20
332.74908
 11
385.80494
 21
320.79071
  0
LINE
  8
0-9
  6
CONTINUOUS
 62
    7
 10
375.80501
 20
332.82453
 11
375.80499
 21
320.79069
  0
LINE
  8
0-9
  6
CONTINUOUS
 62
    7
 10
342.31855
 20
326.0882
 11
346.89482
 21
315.04014
  0
LINE
  8
0-9
  6
CONTINUOUS
 62
    7
 10
333.05093
 20
322.33109
 11
337.65608
 21
311.21328
  0
LINE
  8
0-9
  6
CONTINUOUS
 62
    7
 10
304.69135
 20
303.29284
 11
313.14722
 21
294.83703
  0
LINE
  8
0-9
  6
CONTINUOUS
 62
    7
 10
297.56697
 20
296.27517
 11
306.07618
 21
287.76596
  0
LINE
  8
0-9
  6
CONTINUOUS
 62
    7
 10
278.65176
 20
267.83337
 11
289.69988
 21
263.25713
  0
LINE
  8
0-9
  6
CONTINUOUS
 62
    7
 10
274.75527
 20
258.62354
 11
285.87309
 21
254.01836
  0
LINE
  8
0-9
  6
CONTINUOUS
 62
    7
 10
268.1641
 20
225.1082
 11
280.12244
 21
225.10822
  0
LINE
  8
0-9
  6
CONTINUOUS
 62
    7
 10
268.08865
 20
215.10826
 11
280.12249
 21
215.10825
  0
LINE
  8
0-9
  6
CONTINUOUS
 62
    7
 10
274.82495
 20
181.6218
 11
285.87304
 21
186.1981
  0
LINE
  8
0-9
  6
CONTINUOUS
 62
    7
 10
278.58206
 20
172.3542
 11
289.69988
 21
176.95933
  0
LINE
  8
0-9
  6
CONTINUOUS
 62
    7
 10
297.62031
 20
143.99462
 11
306.07612
 21
152.45047
  0
LINE
  8
0-9
  6
CONTINUOUS
 62
    7
 10
304.63799
 20
136.87025
 11
313.14722
 21
145.37946
  0
LINE
  8
0-9
  6
CONTINUOUS
 62
    7
 10
333.07978
 20
117.95504
 11
337.65603
 21
129.00313
  0
LINE
  8
0-9
  6
CONTINUOUS
 62
    7
 10
342.28965
 20
114.05853
 11
346.89482
 21
125.17636
  0
LINE
  8
0-9
  6
CONTINUOUS
 62
    7
 10
375.80496
 20
107.46736
 11
375.80496
 21
119.42572
  0
LINE
  8
0-9
  6
CONTINUOUS
 62
    7
 10
385.80489
 20
107.39192
 11
385.80492
 21
119.42576
  0
LINE
  8
0-9
  6
CONTINUOUS
 62
    7
 10
419.29135
 20
114.12823
 11
414.71508
 21
125.17629
  0
LINE
  8
0-9
  6
CONTINUOUS
 62
    7
 10
428.55897
 20
117.88533
 11
423.95382
 21
129.00316
  0
LINE
  8
0-9
  6
CONTINUOUS
 62
    7
 10
456.91858
 20
136.92358
 11
448.46269
 21
145.3794
  0
LINE
  8
0-9
  6
CONTINUOUS
 62
    7
 10
464.04293
 20
143.94125
 11
455.53373
 21
152.45048
  0
LINE
  8
0-9
  6
CONTINUOUS
 62
    7
 10
482.95814
 20
172.38305
 11
471.91002
 21
176.95929
  0
LINE
  8
0-9
  6
CONTINUOUS
 62
    7
 10
486.85463
 20
181.59291
 11
475.73684
 21
186.19808
  0
LINE
  8
0-9
  6
CONTINUOUS
 62
    7
 10
493.4458
 20
215.10824
 11
481.48746
 21
215.10821
  0
LINE
  8
0-9
  6
CONTINUOUS
 62
    7
 10
493.52125
 20
225.10817
 11
481.48741
 21
225.1082
  0
LINE
  8
0-9
  6
CONTINUOUS
 62
    7
 10
486.78495
 20
258.59463
 11
475.73689
 21
254.01834
  0
LINE
  8
0-9
  6
CONTINUOUS
 62
    7
 10
483.02781
 20
267.86225
 11
471.91002
 21
263.2571
  0
LINE
  8
0-9
  6
CONTINUOUS
 62
    7
 10
463.98956
 20
296.2218
 11
455.53378
 21
287.76596
  0
LINE
  8
0-1
  6
CONTINUOUS
 62
    4
 10
427.08033
 20
318.76122
 11
427.61607
 21
320.05465
  0
LINE
  8
0-1
  6
CONTINUOUS
 62
    4
 10
417.84161
 20
322.588
 11
418.37736
 21
323.88144
  0
LINE
  8
0-1
  6
CONTINUOUS
 62
    4
 10
427.08033
 20
318.76122
 11
429.06322
 21
318.50016
  0
LINE
  8
0-1
  6
CONTINUOUS
 62
    4
 10
427.08033
 20
318.76122
 11
428.66704
 21
317.54368
  0
LINE
  8
0-1
  6
CONTINUOUS
 62
    4
 10
417.84161
 20
322.588
 11
416.2549
 21
323.80554
  0
LINE
  8
0-1
  6
CONTINUOUS
 62
    4
 10
417.84161
 20
322.588
 11
415.85872
 21
322.84906
  0
LINE
  8
0-1
  6
CONTINUOUS
 62
    4
 10
439.91814
 20
313.44362
 11
411.82028
 21
325.08211
  0
LINE
  8
0-1
  6
CONTINUOUS
 62
    4
 10
454.09016
 20
306.12126
 11
473.5901
 21
306.12126
  0
LINE
  8
0-1
  6
CONTINUOUS
 62
    4
 10
458.09012
 20
306.12126
 11
460.02195
 21
306.6389
  0
LINE
  8
0-1
  6
CONTINUOUS
 62
    4
 10
458.09012
 20
306.12126
 11
460.02195
 21
305.60361
  0
LINE
  8
0-0
  6
CENTER1
 62
    7
 10
370.80483
 20
320.5926
 11
370.80483
 21
327.1447
  0
LINE
  8
0-0
  6
CENTER1
 62
    7
 10
390.80486
 20
321.07201
 11
390.80486
 21
327.1447
  0
LINE
  8
0-0
  6
CENTER1
 62
    7
 10
367.71849
 20
324.10788
 11
373.79118
 21
324.10788
  0
LINE
  8
0-0
  6
CENTER1
 62
    7
 10
387.53464
 20
324.10788
 11
393.76711
 21
324.10788
  0
LINE
  8
0-0
  6
CENTER1
 62
    7
 10
280.32016
 20
210.10784
 11
273.76805
 21
210.10784
  0
LINE
  8
0-0
  6
CENTER1
 62
    7
 10
279.84074
 20
230.10787
 11
273.76805
 21
230.10787
  0
LINE
  8
0-0
  6
CENTER1
 62
    7
 10
276.80488
 20
207.0215
 11
276.80488
 21
213.09419
  0
LINE
  8
0-0
  6
CENTER1
 62
    7
 10
276.80488
 20
226.83765
 11
276.80488
 21
233.07013
  0
LINE
  8
0-0
  6
CENTER1
 62
    7
 10
390.80491
 20
119.62317
 11
390.80491
 21
113.07106
  0
LINE
  8
0-0
  6
CENTER1
 62
    7
 10
370.80489
 20
119.14375
 11
370.80489
 21
113.07106
  0
LINE
  8
0-0
  6
CENTER1
 62
    7
 10
393.89125
 20
116.10789
 11
387.81856
 21
116.10789
  0
LINE
  8
0-0
  6
CENTER1
 62
    7
 10
374.0751
 20
116.10789
 11
367.84263
 21
116.10789
  0
LINE
  8
0-0
  6
CENTER1
 62
    7
 10
481.28961
 20
230.10792
 11
487.84169
 21
230.10792
  0
LINE
  8
0-0
  6
CENTER1
 62
    7
 10
481.769
 20
210.1079
 11
487.84169
 21
210.1079
  0
LINE
  8
0-0
  6
CENTER1
 62
    7
 10
484.80484
 20
233.19426
 11
484.80484
 21
227.12157
  0
LINE
  8
0-0
  6
CENTER1
 62
    7
 10
484.80484
 20
213.37811
 11
484.80484
 21
207.14564
  0
LINE
  8
0-1
  6
CONTINUOUS
 62
    4
 10
395.92931
 20
116.10789
 11
395.92931
 21
220.10808
  0
LINE
  8
0-1
  6
CONTINUOUS
 62
    4
 10
395.92931
 20
116.10789
 11
397.32932
 21
116.10789
  0
LINE
  8
0-1
  6
CONTINUOUS
 62
    4
 10
395.92931
 20
220.10808
 11
397.32932
 21
220.10808
  0
LINE
  8
0-1
  6
CONTINUOUS
 62
    4
 10
395.92931
 20
116.10789
 11
395.41166
 21
118.03975
  0
LINE
  8
0-1
  6
CONTINUOUS
 62
    4
 10
395.92931
 20
116.10789
 11
396.44695
 21
118.03975
  0
LINE
  8
0-1
  6
CONTINUOUS
 62
    4
 10
395.92931
 20
220.10808
 11
395.41166
 21
218.17623
  0
LINE
  8
0-1
  6
CONTINUOUS
 62
    4
 10
395.92931
 20
220.10808
 11
396.44695
 21
218.17623
  0
LINE
  8
0-1
  6
CONTINUOUS
 62
    4
 10
380.80484
 20
108.44771
 11
380.80484
 21
107.04771
  0
LINE
  8
0-1
  6
CONTINUOUS
 62
    4
 10
380.80484
 20
108.44771
 11
382.7367
 21
108.96534
  0
LINE
  8
0-1
  6
CONTINUOUS
 62
    4
 10
380.80484
 20
108.44771
 11
382.7367
 21
107.93007
  0
LINE
  8
0-1
  6
CONTINUOUS
 62
    4
 10
370.80489
 20
108.44771
 11
368.87303
 21
108.96534
  0
LINE
  8
0-1
  6
CONTINUOUS
 62
    4
 10
370.80489
 20
108.44771
 11
368.87303
 21
107.93007
  0
LINE
  8
0-1
  6
CONTINUOUS
 62
    4
 10
380.80484
 20
108.44771
 11
380.80484
 21
107.04771
  0
LINE
  8
0-1
  6
CONTINUOUS
 62
    4
 10
390.80491
 20
108.44771
 11
392.73676
 21
108.96534
  0
LINE
  8
0-1
  6
CONTINUOUS
 62
    4
 10
390.80491
 20
108.44771
 11
392.73676
 21
107.93007
  0
LINE
  8
0-1
  6
CONTINUOUS
 62
    4
 10
380.80484
 20
108.44771
 11
378.87299
 21
108.96534
  0
LINE
  8
0-1
  6
CONTINUOUS
 62
    4
 10
380.80484
 20
108.44771
 11
378.87299
 21
107.93007
  0
LINE
  8
0-1
  6
CONTINUOUS
 62
    4
 10
380.80484
 20
108.44771
 11
354.96415
 21
108.44771
  0
LINE
  8
0-1
  6
CONTINUOUS
 62
    4
 10
406.20027
 20
108.44771
 11
380.80484
 21
108.44771
  0
LINE
  8
0-1
  6
CONTINUOUS
 62
    4
 10
390.80491
 20
112.09166
 11
390.80491
 21
107.04771
  0
LINE
  8
0-1
  6
CONTINUOUS
 62
    4
 10
370.80489
 20
112.20208
 11
370.80489
 21
107.04771
  0
LINE
  8
0-1
  6
CONTINUOUS
 62
    4
 10
370.80489
 20
116.10789
 11
398.7162
 21
67.764066
  0
LINE
  8
0-1
  6
CONTINUOUS
 62
    4
 10
398.7162
 20
67.764066
 11
427.77633
 21
67.764066
  0
LINE
  8
0-1
  6
CONTINUOUS
 62
    4
 10
132.00365
 20
235.90274
 11
149.13797
 21
235.90274
  0
LINE
  8
0-1
  6
CONTINUOUS
 62
    4
 10
168.1446
 20
235.90274
 11
190.93541
 21
235.90274
  0
LINE
  8
0-1
  6
CONTINUOUS
 62
    4
 10
215.34456
 20
386.7946
 11
329.06584
 21
345.01694
  0
LINE
  8
0-1
  6
CONTINUOUS
 62
    4
 10
329.06584
 20
345.01694
 11
327.07398
 21
345.19723
  0
LINE
  8
0-1
  6
CONTINUOUS
 62
    4
 10
329.06584
 20
345.01694
 11
327.43097
 21
346.169
  0
LINE
  8
0-0
  6
CONTINUOUS
 62
    7
 10
44.144544
 20
303.60788
 11
42.14459
 21
303.60788
  0
LINE
  8
ADD_LINE
  6
DOT
 62
    7
 10
42.14459
 20
95.607896
 11
50.309265
 21
95.607896
  0
LINE
  8
0-0
  6
CONTINUOUS
 62
    7
 10
43.944608
 20
95.057549
 11
43.944608
 21
100.60788
  0
LINE
  8
0-0
  6
CONTINUOUS
 62
    7
 10
43.944608
 20
100.60788
 11
42.14459
 21
100.60788
  0
LINE
  8
0-0
  6
CONTINUOUS
 62
    7
 10
42.14459
 20
220.10788
 11
42.14459
 21
100.60788
  0
LINE
  8
ADD_LINE
  6
DOT
 62
    7
 10
42.14459
 20
95.607896
 11
42.14459
 21
100.60788
  0
LINE
  8
ADD_LINE
  6
DOT
 62
    7
 10
42.14459
 20
95.607896
 11
43.944608
 21
95.057549
  0
LINE
  8
0-0
  6
CONTINUOUS
 62
    7
 10
43.944608
 20
339.60791
 11
42.14459
 21
339.60791
  0
LINE
  8
ADD_LINE
  6
DOT
 62
    7
 10
42.14459
 20
344.6079
 11
42.14459
 21
339.60791
  0
LINE
  8
ADD_LINE
  6
DOT
 62
    7
 10
42.14459
 20
344.6079
 11
43.944608
 21
345.15822
  0
LINE
  8
0-0
  6
CONTINUOUS
 62
    7
 10
42.14459
 20
339.60791
 11
42.14459
 21
303.60788
  0
LINE
  8
0-0
  6
CONTINUOUS
 62
    7
 10
43.944608
 20
345.15822
 11
77.144589
 21
355.30844
  0
LINE
  8
0-0
  6
CONTINUOUS
 62
    7
 10
77.144589
 20
351.62317
 11
77.144589
 21
355.30844
  0
LINE
  8
0-0
  6
CONTINUOUS
 62
    7
 10
67.144578
 20
348.56586
 11
77.144589
 21
351.62317
  0
LINE
  8
0-0
  6
CONTINUOUS
 62
    7
 10
67.144578
 20
348.56586
 11
67.144578
 21
313.10789
  0
LINE
  8
0-0
  6
CONTINUOUS
 62
    7
 10
67.144578
 20
313.10789
 11
67.144578
 21
220.10788
  0
LINE
  8
0-0
  6
CONTINUOUS
 62
    7
 10
77.144589
 20
351.62317
 11
77.144589
 21
84.907332
  0
LINE
  8
0-0
  6
CONTINUOUS
 62
    7
 10
43.944608
 20
95.057549
 11
77.144589
 21
84.907332
  0
LINE
  8
0-0
  6
CONTINUOUS
 62
    7
 10
58.144597
 20
297.10788
 11
44.144544
 21
297.10788
  0
LINE
  8
0-0
  6
CONTINUOUS
 62
    7
 10
44.144544
 20
303.60788
 11
44.144544
 21
220.10788
  0
LINE
  8
0-0
  6
CONTINUOUS
 62
    7
 10
58.144597
 20
220.10788
 11
58.144597
 21
313.10789
  0
LINE
  8
0-0
  6
CONTINUOUS
 62
    7
 10
42.14459
 20
303.60788
 11
42.14459
 21
220.10788
  0
LINE
  8
0-0
  6
CONTINUOUS
 62
    7
 10
58.144597
 20
313.10789
 11
67.144578
 21
313.10789
  0
LINE
  8
0-0
  6
CONTINUOUS
 62
    7
 10
43.944608
 20
345.15822
 11
43.944608
 21
339.60791
  0
LINE
  8
0-0
  6
CONTINUOUS
 62
    7
 10
43.944608
 20
100.60788
 11
43.944608
 21
220.10788
  0
LINE
  8
0-0
  6
CENTER1
 62
    7
 10
344.41876
 20
274.56368
 11
301.34296
 21
339.03117
  0
LINE
  8
0-0
  6
CONTINUOUS
 62
    7
 10
52.144574
 20
337.10792
 11
67.144578
 21
337.10792
  0
LINE
  8
0-0
  6
CONTINUOUS
 62
    7
 10
52.144574
 20
337.10792
 11
52.144574
 21
318.10788
  0
LINE
  8
0-0
  6
CONTINUOUS
 62
    7
 10
52.144574
 20
318.10788
 11
67.144578
 21
318.10788
  0
LINE
  8
0-8
  6
CONTINUOUS
 62
    7
 10
55.464035
 20
297.10788
 11
58.144597
 21
299.78842
  0
LINE
  8
0-8
  6
CONTINUOUS
 62
    7
 10
52.63562
 20
297.10788
 11
58.144597
 21
302.61683
  0
LINE
  8
0-8
  6
CONTINUOUS
 62
    7
 10
49.807204
 20
297.10788
 11
58.144597
 21
305.44527
  0
LINE
  8
0-8
  6
CONTINUOUS
 62
    7
 10
65.807211
 20
313.10789
 11
67.144578
 21
314.44523
  0
LINE
  8
0-8
  6
CONTINUOUS
 62
    7
 10
46.978788
 20
297.10788
 11
58.144597
 21
308.27369
  0
LINE
  8
0-8
  6
CONTINUOUS
 62
    7
 10
62.978795
 20
313.10789
 11
67.144578
 21
317.27364
  0
LINE
  8
0-8
  6
CONTINUOUS
 62
    7
 10
44.150373
 20
297.10788
 11
58.144597
 21
311.1021
  0
LINE
  8
0-8
  6
CONTINUOUS
 62
    7
 10
60.15038
 20
313.10789
 11
65.150399
 21
318.10788
  0
LINE
  8
0-8
  6
CONTINUOUS
 62
    7
 10
44.144544
 20
299.93047
 11
62.321983
 21
318.10788
  0
LINE
  8
0-8
  6
CONTINUOUS
 62
    7
 10
44.144544
 20
302.75888
 11
59.493568
 21
318.10788
  0
LINE
  8
0-8
  6
CONTINUOUS
 62
    7
 10
42.165124
 20
303.60788
 11
56.665125
 21
318.10788
  0
LINE
  8
0-8
  6
CONTINUOUS
 62
    7
 10
42.14459
 20
306.41576
 11
53.83671
 21
318.10788
  0
LINE
  8
0-8
  6
CONTINUOUS
 62
    7
 10
42.14459
 20
309.24418
 11
52.144574
 21
319.24416
  0
LINE
  8
0-8
  6
CONTINUOUS
 62
    7
 10
42.14459
 20
312.07259
 11
52.144574
 21
322.07258
  0
LINE
  8
0-8
  6
CONTINUOUS
 62
    7
 10
42.14459
 20
314.90101
 11
52.144574
 21
324.90099
  0
LINE
  8
0-8
  6
CONTINUOUS
 62
    7
 10
64.351508
 20
337.10792
 11
67.144578
 21
339.90099
  0
LINE
  8
0-8
  6
CONTINUOUS
 62
    7
 10
42.14459
 20
317.72942
 11
52.144574
 21
327.72941
  0
LINE
  8
0-8
  6
CONTINUOUS
 62
    7
 10
61.523092
 20
337.10792
 11
67.144578
 21
342.72941
  0
LINE
  8
0-8
  6
CONTINUOUS
 62
    7
 10
75.551165
 20
351.136
 11
77.144589
 21
352.72945
  0
LINE
  8
0-8
  6
CONTINUOUS
 62
    7
 10
42.14459
 20
320.55786
 11
52.144574
 21
330.55782
  0
LINE
  8
0-8
  6
CONTINUOUS
 62
    7
 10
58.69465
 20
337.10792
 11
67.144578
 21
345.55783
  0
LINE
  8
0-8
  6
CONTINUOUS
 62
    7
 10
71.477197
 20
349.89047
 11
76.785329
 21
355.1986
  0
LINE
  8
0-8
  6
CONTINUOUS
 62
    7
 10
42.14459
 20
323.38628
 11
52.144574
 21
333.38626
  0
LINE
  8
0-8
  6
CONTINUOUS
 62
    7
 10
55.866234
 20
337.10792
 11
67.144578
 21
348.38627
  0
LINE
  8
0-8
  6
CONTINUOUS
 62
    7
 10
67.403255
 20
348.64495
 11
72.711387
 21
353.95308
  0
LINE
  8
0-8
  6
CONTINUOUS
 62
    7
 10
42.14459
 20
326.2147
 11
52.144574
 21
336.21468
  0
LINE
  8
0-8
  6
CONTINUOUS
 62
    7
 10
53.037819
 20
337.10792
 11
68.637445
 21
352.70755
  0
LINE
  8
0-8
  6
CONTINUOUS
 62
    7
 10
42.14459
 20
329.04311
 11
64.563503
 21
351.46202
  0
LINE
  8
0-8
  6
CONTINUOUS
 62
    7
 10
42.14459
 20
331.87153
 11
60.489561
 21
350.2165
  0
LINE
  8
0-8
  6
CONTINUOUS
 62
    7
 10
42.14459
 20
334.69994
 11
56.415619
 21
348.97097
  0
LINE
  8
0-8
  6
CONTINUOUS
 62
    7
 10
42.14459
 20
337.52836
 11
52.341677
 21
347.72545
  0
LINE
  8
0-8
  6
CONTINUOUS
 62
    7
 10
43.944608
 20
342.15682
 11
48.267735
 21
346.47992
  0
LINE
  8
0-8
  6
CONTINUOUS
 62
    7
 10
43.944608
 20
344.98523
 11
44.193793
 21
345.23439
  0
LINE
  8
0-1
  6
CONTINUOUS
 62
    4
 10
52.144574
 20
327.25387
 11
67.144578
 21
327.25387
  0
LINE
  8
0-1
  6
CONTINUOUS
 62
    4
 10
52.144574
 20
327.25387
 11
52.144574
 21
325.85386
  0
LINE
  8
0-1
  6
CONTINUOUS
 62
    4
 10
67.144578
 20
327.25387
 11
67.144578
 21
325.85386
  0
LINE
  8
0-1
  6
CONTINUOUS
 62
    4
 10
52.144574
 20
327.25387
 11
54.076404
 21
327.77152
  0
LINE
  8
0-1
  6
CONTINUOUS
 62
    4
 10
52.144574
 20
327.25387
 11
54.076404
 21
326.73622
  0
LINE
  8
0-1
  6
CONTINUOUS
 62
    4
 10
67.144578
 20
327.25387
 11
65.212722
 21
327.77152
  0
LINE
  8
0-1
  6
CONTINUOUS
 62
    4
 10
67.144578
 20
327.25387
 11
65.212722
 21
326.73622
  0
LINE
  8
0-0
  6
CONTINUOUS
 62
    4
 10
418.84079
 20
220.10788
 11
445.2984
 21
220.10788
  0
LINE
  8
0-0
  6
CONTINUOUS
 62
    4
 10
445.2984
 20
220.10788
 11
443.36655
 21
219.59025
  0
LINE
  8
0-0
  6
CONTINUOUS
 62
    4
 10
445.2984
 20
220.10788
 11
443.36655
 21
220.62552
  0
LINE
  8
0-0
  6
CONTINUOUS
 62
    4
 10
370.80489
 20
116.10789
 11
372.21909
 21
114.69368
  0
LINE
  8
0-0
  6
CONTINUOUS
 62
    4
 10
370.80489
 20
116.10789
 11
371.32253
 21
114.17603
  0
LINE
  8
0-0
  6
CENTER1
 62
    7
 10
409.5601
 20
220.10788
 11
22.778761
 21
220.10788
  0
LINE
  8
0-0
  6
CENTER1
 62
    7
 10
521.61012
 20
220.10788
 11
450.95855
 21
220.10788
  0
LINE
  8
0-0
  6
CONTINUOUS
 62
    7
 10
246.00839
 20
44.260361
 11
260.00839
 21
44.260361
  0
LINE
  8
ADD_LINE
  6
DOT
 62
    7
 10
236.61439
 20
80.177968
 11
285.91782
 21
80.177968
  0
LINE
  8
ADD_LINE
  6
DOT
 62
    7
 10
237.52405
 20
15.046501
 11
285.37202
 21
15.046501
  0
LINE
  8
0-0
  6
PHANTOM1
 62
    7
 10
244.00838
 20
80.177968
 11
245.00838
 21
81.070751
  0
LINE
  8
0-0
  6
PHANTOM1
 62
    7
 10
245.00838
 20
81.070751
 11
246.00839
 21
81.934839
  0
LINE
  8
0-0
  6
PHANTOM1
 62
    7
 10
246.00839
 20
81.934839
 11
247.00839
 21
82.742466
  0
LINE
  8
0-0
  6
PHANTOM1
 62
    7
 10
247.00839
 20
82.742466
 11
248.00837
 21
83.467664
  0
LINE
  8
0-0
  6
PHANTOM1
 62
    7
 10
248.00837
 20
83.467664
 11
249.00837
 21
84.087125
  0
LINE
  8
0-0
  6
PHANTOM1
 62
    7
 10
249.00837
 20
84.087125
 11
250.00838
 21
84.580944
  0
LINE
  8
0-0
  6
PHANTOM1
 62
    7
 10
250.00838
 20
84.580944
 11
251.00838
 21
84.933253
  0
LINE
  8
0-0
  6
PHANTOM1
 62
    7
 10
251.00838
 20
84.933253
 11
252.00838
 21
85.132715
  0
LINE
  8
0-0
  6
PHANTOM1
 62
    7
 10
252.00838
 20
85.132715
 11
253.00839
 21
85.172933
  0
LINE
  8
0-0
  6
PHANTOM1
 62
    7
 10
253.00839
 20
85.172933
 11
254.00839
 21
85.052605
  0
LINE
  8
0-0
  6
PHANTOM1
 62
    7
 10
254.00839
 20
85.052605
 11
255.00837
 21
84.775607
  0
LINE
  8
0-0
  6
PHANTOM1
 62
    7
 10
255.00837
 20
84.775607
 11
256.00837
 21
84.350835
  0
LINE
  8
0-0
  6
PHANTOM1
 62
    7
 10
256.00837
 20
84.350835
 11
257.00838
 21
83.791946
  0
LINE
  8
0-0
  6
PHANTOM1
 62
    7
 10
257.00838
 20
83.791946
 11
258.00838
 21
83.116893
  0
LINE
  8
0-0
  6
PHANTOM1
 62
    7
 10
258.00838
 20
83.116893
 11
259.00838
 21
82.347385
  0
LINE
  8
0-0
  6
PHANTOM1
 62
    7
 10
259.00838
 20
82.347385
 11
260.00839
 21
81.508156
  0
LINE
  8
0-0
  6
PHANTOM1
 62
    7
 10
260.00839
 20
81.508156
 11
261.00839
 21
80.626167
  0
LINE
  8
0-0
  6
PHANTOM1
 62
    7
 10
261.00839
 20
80.626167
 11
262.00837
 21
79.729775
  0
LINE
  8
0-0
  6
PHANTOM1
 62
    7
 10
262.00837
 20
79.729775
 11
263.00837
 21
78.847786
  0
LINE
  8
0-0
  6
PHANTOM1
 62
    7
 10
263.00837
 20
78.847786
 11
264.00837
 21
78.00855
  0
LINE
  8
0-0
  6
PHANTOM1
 62
    7
 10
264.00837
 20
78.00855
 11
265.00838
 21
77.239043
  0
LINE
  8
0-0
  6
PHANTOM1
 62
    7
 10
265.00838
 20
77.239043
 11
266.00838
 21
76.563996
  0
LINE
  8
0-0
  6
PHANTOM1
 62
    7
 10
266.00838
 20
76.563996
 11
267.00839
 21
76.0051
  0
LINE
  8
0-0
  6
PHANTOM1
 62
    7
 10
267.00839
 20
76.0051
 11
268.00839
 21
75.580328
  0
LINE
  8
0-0
  6
PHANTOM1
 62
    7
 10
268.00839
 20
75.580328
 11
269.00837
 21
75.30333
  0
LINE
  8
0-0
  6
PHANTOM1
 62
    7
 10
269.00837
 20
75.30333
 11
270.00837
 21
75.183002
  0
LINE
  8
0-0
  6
PHANTOM1
 62
    7
 10
270.00837
 20
75.183002
 11
271.00837
 21
75.223221
  0
LINE
  8
0-0
  6
PHANTOM1
 62
    7
 10
271.00837
 20
75.223221
 11
272.00838
 21
75.422683
  0
LINE
  8
0-0
  6
PHANTOM1
 62
    7
 10
272.00838
 20
75.422683
 11
273.00838
 21
75.774991
  0
LINE
  8
0-0
  6
PHANTOM1
 62
    7
 10
273.00838
 20
75.774991
 11
274.00839
 21
76.26881
  0
LINE
  8
0-0
  6
PHANTOM1
 62
    7
 10
274.00839
 20
76.26881
 11
275.00836
 21
76.888271
  0
LINE
  8
0-0
  6
PHANTOM1
 62
    7
 10
275.00836
 20
76.888271
 11
276.00837
 21
77.613469
  0
LINE
  8
0-0
  6
PHANTOM1
 62
    7
 10
276.00837
 20
77.613469
 11
277.00837
 21
78.42109
  0
LINE
  8
0-0
  6
PHANTOM1
 62
    7
 10
277.00837
 20
78.42109
 11
278.00837
 21
79.285184
  0
LINE
  8
0-0
  6
PHANTOM1
 62
    7
 10
278.00837
 20
79.285184
 11
279.00838
 21
80.177968
  0
LINE
  8
0-0
  6
PHANTOM1
 62
    7
 10
244.00838
 20
15.046498
 11
245.00838
 21
15.939281
  0
LINE
  8
0-0
  6
PHANTOM1
 62
    7
 10
245.00838
 20
15.939281
 11
246.00839
 21
16.803369
  0
LINE
  8
0-0
  6
PHANTOM1
 62
    7
 10
246.00839
 20
16.803369
 11
247.00839
 21
17.610996
  0
LINE
  8
0-0
  6
PHANTOM1
 62
    7
 10
247.00839
 20
17.610996
 11
248.00837
 21
18.336194
  0
LINE
  8
0-0
  6
PHANTOM1
 62
    7
 10
248.00837
 20
18.336194
 11
249.00837
 21
18.955655
  0
LINE
  8
0-0
  6
PHANTOM1
 62
    7
 10
249.00837
 20
18.955655
 11
250.00838
 21
19.449474
  0
LINE
  8
0-0
  6
PHANTOM1
 62
    7
 10
250.00838
 20
19.449474
 11
251.00838
 21
19.801783
  0
LINE
  8
0-0
  6
PHANTOM1
 62
    7
 10
251.00838
 20
19.801783
 11
252.00838
 21
20.001245
  0
LINE
  8
0-0
  6
PHANTOM1
 62
    7
 10
252.00838
 20
20.001245
 11
253.00839
 21
20.041464
  0
LINE
  8
0-0
  6
PHANTOM1
 62
    7
 10
253.00839
 20
20.041464
 11
254.00839
 21
19.921135
  0
LINE
  8
0-0
  6
PHANTOM1
 62
    7
 10
254.00839
 20
19.921135
 11
255.00837
 21
19.644137
  0
LINE
  8
0-0
  6
PHANTOM1
 62
    7
 10
255.00837
 20
19.644137
 11
256.00837
 21
19.219365
  0
LINE
  8
0-0
  6
PHANTOM1
 62
    7
 10
256.00837
 20
19.219365
 11
257.00838
 21
18.660476
  0
LINE
  8
0-0
  6
PHANTOM1
 62
    7
 10
257.00838
 20
18.660476
 11
258.00838
 21
17.985423
  0
LINE
  8
0-0
  6
PHANTOM1
 62
    7
 10
258.00838
 20
17.985423
 11
259.00838
 21
17.215916
  0
LINE
  8
0-0
  6
PHANTOM1
 62
    7
 10
259.00838
 20
17.215916
 11
260.00839
 21
16.376686
  0
LINE
  8
0-0
  6
PHANTOM1
 62
    7
 10
260.00839
 20
16.376686
 11
261.00839
 21
15.494698
  0
LINE
  8
0-0
  6
PHANTOM1
 62
    7
 10
261.00839
 20
15.494698
 11
262.00837
 21
14.598305
  0
LINE
  8
0-0
  6
PHANTOM1
 62
    7
 10
262.00837
 20
14.598305
 11
263.00837
 21
13.716317
  0
LINE
  8
0-0
  6
PHANTOM1
 62
    7
 10
263.00837
 20
13.716317
 11
264.00837
 21
12.87708
  0
LINE
  8
0-0
  6
PHANTOM1
 62
    7
 10
264.00837
 20
12.87708
 11
265.00838
 21
12.107573
  0
LINE
  8
0-0
  6
PHANTOM1
 62
    7
 10
265.00838
 20
12.107573
 11
266.00838
 21
11.432526
  0
LINE
  8
0-0
  6
PHANTOM1
 62
    7
 10
266.00838
 20
11.432526
 11
267.00839
 21
10.87363
  0
LINE
  8
0-0
  6
PHANTOM1
 62
    7
 10
267.00839
 20
10.87363
 11
268.00839
 21
10.448859
  0
LINE
  8
0-0
  6
PHANTOM1
 62
    7
 10
268.00839
 20
10.448859
 11
269.00837
 21
10.17186
  0
LINE
  8
0-0
  6
PHANTOM1
 62
    7
 10
269.00837
 20
10.17186
 11
270.00837
 21
10.051532
  0
LINE
  8
0-0
  6
PHANTOM1
 62
    7
 10
270.00837
 20
10.051532
 11
271.00837
 21
10.091751
  0
LINE
  8
0-0
  6
PHANTOM1
 62
    7
 10
271.00837
 20
10.091751
 11
272.00838
 21
10.291213
  0
LINE
  8
0-0
  6
PHANTOM1
 62
    7
 10
272.00838
 20
10.291213
 11
273.00838
 21
10.643521
  0
LINE
  8
0-0
  6
PHANTOM1
 62
    7
 10
273.00838
 20
10.643521
 11
274.00839
 21
11.137341
  0
LINE
  8
0-0
  6
PHANTOM1
 62
    7
 10
274.00839
 20
11.137341
 11
275.00836
 21
11.756802
  0
LINE
  8
0-0
  6
PHANTOM1
 62
    7
 10
275.00836
 20
11.756802
 11
276.00837
 21
12.482
  0
LINE
  8
0-0
  6
PHANTOM1
 62
    7
 10
276.00837
 20
12.482
 11
277.00837
 21
13.28962
  0
LINE
  8
0-0
  6
PHANTOM1
 62
    7
 10
277.00837
 20
13.28962
 11
278.00837
 21
14.153715
  0
LINE
  8
0-0
  6
PHANTOM1
 62
    7
 10
278.00837
 20
14.153715
 11
279.00838
 21
15.046498
  0
LINE
  8
0-0
  6
CONTINUOUS
 62
    7
 10
279.00838
 20
80.177968
 11
279.00838
 21
15.046498
  0
LINE
  8
0-0
  6
CONTINUOUS
 62
    7
 10
269.00837
 20
75.30333
 11
269.00837
 21
10.17186
  0
LINE
  8
0-0
  6
CONTINUOUS
 62
    7
 10
260.00839
 20
81.568667
 11
260.00839
 21
16.376686
  0
LINE
  8
0-0
  6
CONTINUOUS
 62
    7
 10
246.00839
 20
81.934839
 11
246.00839
 21
16.803369
  0
LINE
  8
0-0
  6
CONTINUOUS
 62
    7
 10
244.00838
 20
80.177968
 11
244.00838
 21
15.046498
  0
LINE
  8
0-0
  6
CONTINUOUS
 62
    4
 10
244.00838
 20
102.89004
 11
279.00838
 21
102.89004
  0
LINE
  8
0-0
  6
CONTINUOUS
 62
    4
 10
244.00838
 20
85.48231
 11
244.00838
 21
104.29003
  0
LINE
  8
0-0
  6
CONTINUOUS
 62
    4
 10
279.00838
 20
85.48231
 11
279.00838
 21
104.29003
  0
LINE
  8
0-0
  6
CONTINUOUS
 62
    4
 10
244.00838
 20
102.89004
 11
245.94024
 21
103.40767
  0
LINE
  8
0-0
  6
CONTINUOUS
 62
    4
 10
244.00838
 20
102.89004
 11
245.94024
 21
102.3724
  0
LINE
  8
0-0
  6
CONTINUOUS
 62
    4
 10
279.00838
 20
102.89004
 11
277.07652
 21
103.40767
  0
LINE
  8
0-0
  6
CONTINUOUS
 62
    4
 10
279.00838
 20
102.89004
 11
277.07652
 21
102.3724
  0
LINE
  8
0-0
  6
CONTINUOUS
 62
    4
 10
246.00839
 20
93.522853
 11
244.00838
 21
93.522853
  0
LINE
  8
0-0
  6
CONTINUOUS
 62
    4
 10
246.00839
 20
84.858303
 11
246.00839
 21
94.92285
  0
LINE
  8
0-0
  6
CONTINUOUS
 62
    4
 10
244.00838
 20
84.858303
 11
244.00838
 21
94.92285
  0
LINE
  8
0-0
  6
CONTINUOUS
 62
    4
 10
246.00839
 20
93.522853
 11
247.94024
 21
94.040487
  0
LINE
  8
0-0
  6
CONTINUOUS
 62
    4
 10
246.00839
 20
93.522853
 11
247.94024
 21
93.005218
  0
LINE
  8
0-0
  6
CONTINUOUS
 62
    4
 10
244.00838
 20
93.522853
 11
242.07652
 21
94.040487
  0
LINE
  8
0-0
  6
CONTINUOUS
 62
    4
 10
244.00838
 20
93.522853
 11
242.07652
 21
93.005218
  0
LINE
  8
0-0
  6
CONTINUOUS
 62
    4
 10
246.00839
 20
84.858303
 11
246.00839
 21
94.92285
  0
LINE
  8
0-0
  6
CONTINUOUS
 62
    4
 10
260.00839
 20
84.858303
 11
260.00839
 21
94.92285
  0
LINE
  8
0-0
  6
CONTINUOUS
 62
    4
 10
246.00839
 20
93.522853
 11
247.94024
 21
94.040487
  0
LINE
  8
0-0
  6
CONTINUOUS
 62
    4
 10
246.00839
 20
93.522853
 11
247.94024
 21
93.005218
  0
LINE
  8
0-0
  6
CONTINUOUS
 62
    4
 10
260.00839
 20
93.522853
 11
258.07653
 21
94.040487
  0
LINE
  8
0-0
  6
CONTINUOUS
 62
    4
 10
260.00839
 20
93.522853
 11
258.07653
 21
93.005218
  0
LINE
  8
0-0
  6
CONTINUOUS
 62
    4
 10
230.45563
 20
93.522853
 11
260.00839
 21
93.522853
  0
LINE
  8
0-1
  6
CONTINUOUS
 62
    4
 10
254.1205
 20
44.939819
 11
288.67292
 21
64.888674
  0
LINE
  8
0-1
  6
CONTINUOUS
 62
    4
 10
288.67292
 20
64.888674
 11
350.1504
 21
64.888674
  0
LINE
  8
0-1
  6
CONTINUOUS
 62
    4
 10
254.1205
 20
44.939819
 11
255.5347
 21
46.354033
  0
LINE
  8
0-1
  6
CONTINUOUS
 62
    4
 10
254.1205
 20
44.939819
 11
256.05235
 21
45.457457
  0
LINE
  8
0-0
  6
CENTER1
 62
    7
 10
238.17121
 20
44.260361
 11
242.5869
 21
44.260361
  0
LINE
  8
0-0
  6
CENTER1
 62
    7
 10
263.45958
 20
44.260361
 11
284.4257
 21
44.260361
  0
CIRCLE
  8
0-0
  6
CONTINUOUS
 62
    7
 10
380.80487
 20
220.1079
 40
77.000004
  0
CIRCLE
  8
0-0
  6
CONTINUOUS
 62
    7
 10
349.80751
 20
294.94219
 40
1.6999999
  0
CIRCLE
  8
0-0
  6
CONTINUOUS
 62
    7
 10
305.97059
 20
251.10522
 40
1.6999999
  0
CIRCLE
  8
0-0
  6
CONTINUOUS
 62
    7
 10
305.97062
 20
189.11055
 40
1.6999999
  0
CIRCLE
  8
0-0
  6
CONTINUOUS
 62
    7
 10
349.80753
 20
145.27369
 40
1.6999999
  0
CIRCLE
  8
0-0
  6
CONTINUOUS
 62
    7
 10
411.80215
 20
145.27366
 40
1.6999999
  0
CIRCLE
  8
0-0
  6
CONTINUOUS
 62
    7
 10
455.63917
 20
189.11057
 40
1.6999999
  0
CIRCLE
  8
0-0
  6
CONTINUOUS
 62
    7
 10
455.63907
 20
251.10525
 40
1.6999999
  0
CIRCLE
  8
0-0
  6
CONTINUOUS
 62
    7
 10
411.80221
 20
294.94211
 40
1.6999999
  0
CIRCLE
  8
0-0
  6
CONTINUOUS
 62
    7
 10
284.4288
 20
294.912
 40
1.6999999
  0
CIRCLE
  8
0-0
  6
CONTINUOUS
 62
    7
 10
259.9343
 20
236.66957
 40
1.6999999
  0
CIRCLE
  8
0-0
  6
CONTINUOUS
 62
    7
 10
334.11749
 20
332.82121
 40
1.6999999
  0
CIRCLE
  8
0-0
  6
CONTINUOUS
 62
    7
 10
396.44503
 20
341.10118
 40
1.6999999
  0
CIRCLE
  8
0-0
  6
CONTINUOUS
 62
    7
 10
454.24074
 20
317.53053
 40
1.6999999
  0
CIRCLE
  8
0-0
  6
CONTINUOUS
 62
    7
 10
493.51809
 20
266.79527
 40
1.6999999
  0
CIRCLE
  8
0-0
  6
CONTINUOUS
 62
    7
 10
501.71833
 20
203.86175
 40
1.6999999
  0
CIRCLE
  8
0-0
  6
CONTINUOUS
 62
    7
 10
478.16388
 20
146.58766
 40
1.6999999
  0
CIRCLE
  8
0-0
  6
CONTINUOUS
 62
    7
 10
427.49223
 20
107.39461
 40
1.6999999
  0
CIRCLE
  8
0-0
  6
CONTINUOUS
 62
    7
 10
363.76505
 20
99.303782
 40
1.6999999
  0
CIRCLE
  8
0-0
  6
CONTINUOUS
 62
    7
 10
306.9048
 20
123.03693
 40
1.6999999
  0
CIRCLE
  8
0-0
  6
CONTINUOUS
 62
    7
 10
268.09157
 20
173.42051
 40
1.6999999
  0
CIRCLE
  8
0-0
  6
CONTINUOUS
 62
    7
 10
341.00578
 20
316.19137
 40
1.4999999
  0
CIRCLE
  8
0-0
  6
CONTINUOUS
 62
    7
 10
284.72136
 20
259.907
 40
1.4999999
  0
CIRCLE
  8
0-0
  6
CONTINUOUS
 62
    7
 10
284.72141
 20
180.30882
 40
1.4999999
  0
CIRCLE
  8
0-0
  6
CONTINUOUS
 62
    7
 10
341.00578
 20
124.02441
 40
1.4999999
  0
CIRCLE
  8
0-0
  6
CONTINUOUS
 62
    7
 10
420.60394
 20
124.02442
 40
1.4999999
  0
CIRCLE
  8
0-0
  6
CONTINUOUS
 62
    7
 10
476.88839
 20
180.30884
 40
1.4999999
  0
CIRCLE
  8
0-0
  6
CONTINUOUS
 62
    7
 10
476.88833
 20
259.90697
 40
1.4999999
  0
CIRCLE
  8
0-0
  6
CONTINUOUS
 62
    7
 10
420.60396
 20
316.19142
 40
1.4999999
  0
CIRCLE
  8
0-0
  6
CONTINUOUS
 62
    7
 10
341.00573
 20
316.19134
 40
1.2999999
  0
CIRCLE
  8
0-0
  6
CONTINUOUS
 62
    7
 10
284.72136
 20
259.907
 40
1.2999999
  0
CIRCLE
  8
0-0
  6
CONTINUOUS
 62
    7
 10
284.72141
 20
180.30882
 40
1.2999999
  0
CIRCLE
  8
0-0
  6
CONTINUOUS
 62
    7
 10
341.00578
 20
124.02441
 40
1.2999999
  0
CIRCLE
  8
0-0
  6
CONTINUOUS
 62
    7
 10
420.60394
 20
124.02442
 40
1.2999999
  0
CIRCLE
  8
0-0
  6
CONTINUOUS
 62
    7
 10
476.88839
 20
180.30884
 40
1.2999999
  0
CIRCLE
  8
0-0
  6
CONTINUOUS
 62
    7
 10
476.88833
 20
259.90697
 40
1.2999999
  0
CIRCLE
  8
0-0
  6
CONTINUOUS
 62
    7
 10
420.60396
 20
316.19142
 40
1.2999999
  0
CIRCLE
  8
0-0
  6
CONTINUOUS
 62
    7
 10
411.80223
 20
145.27366
 40
2.9999998
  0
CIRCLE
  8
0-0
  6
CONTINUOUS
 62
    7
 10
349.80753
 20
145.27363
 40
2.9999998
  0
CIRCLE
  8
0-0
  6
CONTINUOUS
 62
    7
 10
455.63917
 20
189.11055
 40
2.9999998
  0
CIRCLE
  8
0-0
  6
CONTINUOUS
 62
    7
 10
455.63907
 20
251.10525
 40
2.9999998
  0
CIRCLE
  8
0-0
  6
CONTINUOUS
 62
    7
 10
411.80229
 20
294.94213
 40
2.9999998
  0
CIRCLE
  8
0-0
  6
CONTINUOUS
 62
    7
 10
349.80751
 20
294.94213
 40
2.9999998
  0
CIRCLE
  8
0-0
  6
CONTINUOUS
 62
    7
 10
305.97062
 20
189.11053
 40
2.9999998
  0
CIRCLE
  8
0-0
  6
CONTINUOUS
 62
    7
 10
305.97059
 20
251.10522
 40
2.9999998
  0
CIRCLE
  8
0-0
  6
CONTINUOUS
 62
    7
 10
334.11743
 20
332.82121
 40
2.9999998
  0
CIRCLE
  8
0-0
  6
CONTINUOUS
 62
    7
 10
284.4288
 20
294.912
 40
2.9999998
  0
CIRCLE
  8
0-0
  6
CONTINUOUS
 62
    7
 10
259.93425
 20
236.66955
 40
2.9999998
  0
CIRCLE
  8
0-0
  6
CONTINUOUS
 62
    7
 10
268.09157
 20
173.42051
 40
2.9999998
  0
CIRCLE
  8
0-0
  6
CONTINUOUS
 62
    7
 10
306.9048
 20
123.03689
 40
2.9999998
  0
CIRCLE
  8
0-0
  6
CONTINUOUS
 62
    7
 10
363.765
 20
99.303769
 40
2.9999998
  0
CIRCLE
  8
0-0
  6
CONTINUOUS
 62
    7
 10
427.49223
 20
107.39461
 40
2.9999998
  0
CIRCLE
  8
0-0
  6
CONTINUOUS
 62
    7
 10
478.16388
 20
146.58763
 40
2.9999998
  0
CIRCLE
  8
0-0
  6
CONTINUOUS
 62
    7
 10
501.71833
 20
203.86175
 40
2.9999998
  0
CIRCLE
  8
0-0
  6
CONTINUOUS
 62
    7
 10
493.51809
 20
266.79524
 40
2.9999998
  0
CIRCLE
  8
0-0
  6
CONTINUOUS
 62
    7
 10
454.24074
 20
317.53053
 40
2.9999998
  0
CIRCLE
  8
0-0
  6
CONTINUOUS
 62
    7
 10
396.445
 20
341.10123
 40
2.9999998
  0
CIRCLE
  8
0-0
  6
CONTINUOUS
 62
    7
 10
380.80487
 20
220.1079
 40
92.999991
  0
CIRCLE
  8
0-0
  6
CONTINUOUS
 62
    7
 10
347.12874
 20
301.4093
 40
1.4999999
  0
CIRCLE
  8
0-0
  6
CONTINUOUS
 62
    7
 10
299.50346
 20
253.78399
 40
1.4999999
  0
CIRCLE
  8
0-0
  6
CONTINUOUS
 62
    7
 10
299.50348
 20
186.43176
 40
1.4999999
  0
CIRCLE
  8
0-0
  6
CONTINUOUS
 62
    7
 10
347.12874
 20
138.80649
 40
1.4999999
  0
CIRCLE
  8
0-0
  6
CONTINUOUS
 62
    7
 10
414.48101
 20
138.80651
 40
1.4999999
  0
CIRCLE
  8
0-0
  6
CONTINUOUS
 62
    7
 10
462.10629
 20
186.43176
 40
1.4999999
  0
CIRCLE
  8
0-0
  6
CONTINUOUS
 62
    7
 10
462.10629
 20
253.78404
 40
1.4999999
  0
CIRCLE
  8
0-0
  6
CONTINUOUS
 62
    7
 10
414.48103
 20
301.40924
 40
1.4999999
  0
CIRCLE
  8
0-0
  6
CONTINUOUS
 62
    7
 10
347.12874
 20
301.4093
 40
1.2999999
  0
CIRCLE
  8
0-0
  6
CONTINUOUS
 62
    7
 10
299.50346
 20
253.78399
 40
1.2999999
  0
CIRCLE
  8
0-0
  6
CONTINUOUS
 62
    7
 10
299.50348
 20
186.43176
 40
1.2999999
  0
CIRCLE
  8
0-0
  6
CONTINUOUS
 62
    7
 10
347.12874
 20
138.80649
 40
1.2999999
  0
CIRCLE
  8
0-0
  6
CONTINUOUS
 62
    7
 10
414.48101
 20
138.80651
 40
1.2999999
  0
CIRCLE
  8
0-0
  6
CONTINUOUS
 62
    7
 10
462.10629
 20
186.43176
 40
1.2999999
  0
CIRCLE
  8
0-0
  6
CONTINUOUS
 62
    7
 10
462.10629
 20
253.78404
 40
1.2999999
  0
CIRCLE
  8
0-0
  6
CONTINUOUS
 62
    7
 10
414.48103
 20
301.40924
 40
1.2999999
  0
CIRCLE
  8
0-0
  6
CONTINUOUS
 62
    7
 10
380.80487
 20
220.1079
 40
131.51528
  0
CIRCLE
  8
0-0
  6
CONTINUOUS
 62
    7
 10
380.80487
 20
220.1079
 40
135.20058
  0
ARC
  8
0-1
  6
CONTINUOUS
 62
    4
 10
187.14459
 20
84.907332
 40
26.846152
 50
343.00006
 51
0
  0
ARC
  8
0-1
  6
CONTINUOUS
 62
    4
 10
177.14455
 20
348.56586
 40
47.173655
 50
0
 51
16.999984
  0
ARC
  8
0-0
  6
CONTINUOUS
 62
    4
 10
380.80484
 20
220.10796
 40
46.172558
 50
90
 51
112.5
  0
ARC
  8
0-0
  6
CENTER1
 62
    7
 10
380.80487
 20
220.1079
 40
80.999999
 50
108.96098
 51
116.03903
  0
ARC
  8
0-0
  6
CENTER1
 62
    7
 10
380.80487
 20
220.1079
 40
121.99999
 50
110.15116
 51
114.84884
  0
ARC
  8
0-0
  6
CENTER1
 62
    7
 10
380.80487
 20
220.1079
 40
87.999992
 50
110.54637
 51
114.45362
  0
ARC
  8
0-0
  6
CENTER1
 62
    7
 10
380.80487
 20
220.1079
 40
104
 50
110.84701
 51
114.15298
  0
ARC
  8
0-0
  6
CENTER1
 62
    7
 10
380.80492
 20
220.10786
 40
121.99999
 50
140.15116
 51
144.84884
  0
ARC
  8
0-0
  6
CENTER1
 62
    7
 10
380.80498
 20
220.10782
 40
121.99999
 50
170.15116
 51
174.84884
  0
ARC
  8
0-0
  6
CENTER1
 62
    7
 10
380.80498
 20
220.10779
 40
121.99999
 50
200.15116
 51
204.84884
  0
ARC
  8
0-0
  6
CENTER1
 62
    7
 10
380.805
 20
220.10775
 40
121.99999
 50
230.15116
 51
234.84884
  0
ARC
  8
0-0
  6
CENTER1
 62
    7
 10
380.80498
 20
220.1077
 40
121.99999
 50
260.15116
 51
264.84884
  0
ARC
  8
0-0
  6
CENTER1
 62
    7
 10
380.80498
 20
220.10763
 40
121.99999
 50
290.15116
 51
294.84884
  0
ARC
  8
0-0
  6
CENTER1
 62
    7
 10
380.80498
 20
220.10753
 40
121.99999
 50
320.15116
 51
324.84884
  0
ARC
  8
0-0
  6
CENTER1
 62
    7
 10
380.80498
 20
220.10744
 40
121.99999
 50
350.15116
 51
354.84884
  0
ARC
  8
0-0
  6
CENTER1
 62
    7
 10
380.80503
 20
220.10733
 40
121.99999
 50
20.151168
 51
24.848846
  0
ARC
  8
0-0
  6
CENTER1
 62
    7
 10
380.80506
 20
220.10724
 40
121.99999
 50
50.151168
 51
54.848846
  0
ARC
  8
0-0
  6
CENTER1
 62
    7
 10
380.80514
 20
220.10716
 40
121.99999
 50
80.151168
 51
84.848846
  0
ARC
  8
0-0
  6
CENTER1
 62
    7
 10
380.80487
 20
220.10788
 40
80.999999
 50
153.96098
 51
161.03903
  0
ARC
  8
0-0
  6
CENTER1
 62
    7
 10
380.80487
 20
220.10788
 40
87.999992
 50
155.54637
 51
159.45362
  0
ARC
  8
0-0
  6
CENTER1
 62
    7
 10
380.80487
 20
220.10788
 40
104
 50
155.84701
 51
159.15298
  0
ARC
  8
0-0
  6
CENTER1
 62
    7
 10
380.80487
 20
220.10787
 40
80.999999
 50
198.96098
 51
206.03903
  0
ARC
  8
0-0
  6
CENTER1
 62
    7
 10
380.80487
 20
220.10787
 40
87.999992
 50
200.54637
 51
204.45362
  0
ARC
  8
0-0
  6
CENTER1
 62
    7
 10
380.80487
 20
220.10787
 40
104
 50
200.84701
 51
204.15298
  0
ARC
  8
0-0
  6
CENTER1
 62
    7
 10
380.80487
 20
220.10786
 40
80.999999
 50
243.96098
 51
251.03903
  0
ARC
  8
0-0
  6
CENTER1
 62
    7
 10
380.80487
 20
220.10786
 40
87.999992
 50
245.54637
 51
249.45362
  0
ARC
  8
0-0
  6
CENTER1
 62
    7
 10
380.80487
 20
220.10786
 40
104
 50
245.84701
 51
249.15298
  0
ARC
  8
0-0
  6
CENTER1
 62
    7
 10
380.80487
 20
220.10784
 40
80.999999
 50
288.96098
 51
296.03903
  0
ARC
  8
0-0
  6
CENTER1
 62
    7
 10
380.80487
 20
220.10784
 40
87.999992
 50
290.54637
 51
294.45362
  0
ARC
  8
0-0
  6
CENTER1
 62
    7
 10
380.80487
 20
220.10784
 40
104
 50
290.84701
 51
294.15298
  0
ARC
  8
0-0
  6
CENTER1
 62
    7
 10
380.80487
 20
220.10783
 40
80.999999
 50
333.96098
 51
341.03903
  0
ARC
  8
0-0
  6
CENTER1
 62
    7
 10
380.80487
 20
220.10783
 40
87.999992
 50
335.54637
 51
339.45362
  0
ARC
  8
0-0
  6
CENTER1
 62
    7
 10
380.80487
 20
220.10783
 40
104
 50
335.84701
 51
339.15298
  0
ARC
  8
0-0
  6
CENTER1
 62
    7
 10
380.80487
 20
220.10782
 40
80.999999
 50
18.960983
 51
26.039031
  0
ARC
  8
0-0
  6
CENTER1
 62
    7
 10
380.80487
 20
220.10782
 40
87.999992
 50
20.546371
 51
24.453628
  0
ARC
  8
0-0
  6
CENTER1
 62
    7
 10
380.80487
 20
220.10782
 40
104
 50
20.847015
 51
24.152984
  0
ARC
  8
0-0
  6
CENTER1
 62
    7
 10
380.80487
 20
220.1078
 40
80.999999
 50
63.960983
 51
71.039031
  0
ARC
  8
0-0
  6
CENTER1
 62
    7
 10
380.80487
 20
220.1078
 40
87.999992
 50
65.546371
 51
69.453628
  0
ARC
  8
0-0
  6
CENTER1
 62
    7
 10
380.80487
 20
220.1078
 40
104
 50
65.847015
 51
69.152984
  0
CIRCLE
  8
0-0
  6
DASHED1
 62
    7
 10
380.80484
 20
220.10788
 40
83.500002
  0
ARC
  8
0-9
  6
CONTINUOUS
 62
    7
 10
432.22563
 20
320.73066
 40
4.0000001
 50
62.931747
 51
157.50006
  0
ARC
  8
0-9
  6
CONTINUOUS
 62
    7
 10
380.80484
 20
220.10808
 40
117
 50
49.568206
 51
62.931777
  0
ARC
  8
0-9
  6
CONTINUOUS
 62
    7
 10
454.09016
 20
306.12126
 40
4.0000001
 50
316.08064
 51
49.568145
  0
ARC
  8
0-9
  6
CONTINUOUS
 62
    7
 10
445.57454
 20
297.60572
 40
4.0000001
 50
230.11224
 51
316.2095
  0
ARC
  8
0-9
  6
CONTINUOUS
 62
    7
 10
380.80487
 20
220.10808
 40
96.999993
 50
50.11235
 51
62.387634
  0
ARC
  8
0-9
  6
CONTINUOUS
 62
    7
 10
427.61704
 20
309.60453
 40
4.0000001
 50
156.29025
 51
242.38755
  0
ARC
  8
0-9
  6
CONTINUOUS
 62
    7
 10
389.80493
 20
332.74908
 40
4.0000001
 50
85.431747
 51
180.00006
  0
ARC
  8
0-9
  6
CONTINUOUS
 62
    7
 10
380.8049
 20
220.10806
 40
117
 50
72.068206
 51
85.431777
  0
ARC
  8
0-9
  6
CONTINUOUS
 62
    7
 10
415.59587
 20
327.61893
 40
4.0000001
 50
338.58064
 51
72.068145
  0
ARC
  8
0-9
  6
CONTINUOUS
 62
    7
 10
410.98728
 20
316.49283
 40
4.0000001
 50
252.61224
 51
338.7095
  0
ARC
  8
0-9
  6
CONTINUOUS
 62
    7
 10
380.80492
 20
220.10806
 40
96.999993
 50
72.61235
 51
84.887634
  0
ARC
  8
0-9
  6
CONTINUOUS
 62
    7
 10
389.80496
 20
320.70625
 40
4.0000001
 50
178.79025
 51
264.88755
  0
ARC
  8
0-9
  6
CONTINUOUS
 62
    7
 10
346.01406
 20
327.61896
 40
4.0000001
 50
107.93174
 51
202.50006
  0
ARC
  8
0-9
  6
CONTINUOUS
 62
    7
 10
380.80498
 20
220.10804
 40
117
 50
94.568206
 51
107.93177
  0
ARC
  8
0-9
  6
CONTINUOUS
 62
    7
 10
371.805
 20
332.74908
 40
4.0000001
 50
1.0806427
 51
94.568145
  0
ARC
  8
0-9
  6
CONTINUOUS
 62
    7
 10
371.80497
 20
320.70625
 40
4.0000001
 50
275.11224
 51
1.2095031
  0
ARC
  8
0-9
  6
CONTINUOUS
 62
    7
 10
380.80498
 20
220.10807
 40
96.999993
 50
95.11235
 51
107.38763
  0
ARC
  8
0-9
  6
CONTINUOUS
 62
    7
 10
350.62265
 20
316.49283
 40
4.0000001
 50
201.29025
 51
287.38755
  0
ARC
  8
0-9
  6
CONTINUOUS
 62
    7
 10
307.51977
 20
306.12126
 40
4.0000001
 50
130.43174
 51
225.00006
  0
ARC
  8
0-9
  6
CONTINUOUS
 62
    7
 10
380.80503
 20
220.10807
 40
117
 50
117.0682
 51
130.43177
  0
ARC
  8
0-9
  6
CONTINUOUS
 62
    7
 10
329.3843
 20
320.73066
 40
4.0000001
 50
23.580642
 51
117.06814
  0
ARC
  8
0-9
  6
CONTINUOUS
 62
    7
 10
333.99287
 20
309.60456
 40
4.0000001
 50
297.61224
 51
23.709503
  0
ARC
  8
0-9
  6
CONTINUOUS
 62
    7
 10
380.80503
 20
220.1081
 40
96.999993
 50
117.61235
 51
129.88763
  0
ARC
  8
0-9
  6
CONTINUOUS
 62
    7
 10
316.03536
 20
297.60572
 40
4.0000001
 50
223.79025
 51
309.88755
  0
ARC
  8
0-9
  6
CONTINUOUS
 62
    7
 10
280.18249
 20
271.52891
 40
4.0000001
 50
152.93174
 51
247.50006
  0
ARC
  8
0-9
  6
CONTINUOUS
 62
    7
 10
380.80509
 20
220.10811
 40
117
 50
139.5682
 51
152.93177
  0
ARC
  8
0-9
  6
CONTINUOUS
 62
    7
 10
294.79193
 20
293.39339
 40
4.0000001
 50
46.080642
 51
139.56814
  0
ARC
  8
0-9
  6
CONTINUOUS
 62
    7
 10
303.30744
 20
284.87782
 40
4.0000001
 50
320.11224
 51
46.209503
  0
ARC
  8
0-9
  6
CONTINUOUS
 62
    7
 10
380.80509
 20
220.10814
 40
96.999993
 50
140.11235
 51
152.38763
  0
ARC
  8
0-9
  6
CONTINUOUS
 62
    7
 10
291.30862
 20
266.92032
 40
4.0000001
 50
246.29025
 51
332.38755
  0
ARC
  8
0-9
  6
CONTINUOUS
 62
    7
 10
268.1641
 20
229.10818
 40
4.0000001
 50
175.43174
 51
270.00006
  0
ARC
  8
0-9
  6
CONTINUOUS
 62
    7
 10
380.80511
 20
220.10816
 40
117
 50
162.0682
 51
175.43177
  0
ARC
  8
0-9
  6
CONTINUOUS
 62
    7
 10
273.29425
 20
254.89912
 40
4.0000001
 50
68.580642
 51
162.06814
  0
ARC
  8
0-9
  6
CONTINUOUS
 62
    7
 10
284.42036
 20
250.29053
 40
4.0000001
 50
342.61224
 51
68.709503
  0
ARC
  8
0-9
  6
CONTINUOUS
 62
    7
 10
380.80511
 20
220.10819
 40
96.999993
 50
162.61235
 51
174.88763
  0
ARC
  8
0-9
  6
CONTINUOUS
 62
    7
 10
280.20693
 20
229.10821
 40
4.0000001
 50
268.79025
 51
354.88755
  0
ARC
  8
0-9
  6
CONTINUOUS
 62
    7
 10
273.29422
 20
185.31731
 40
4.0000001
 50
197.93174
 51
292.50006
  0
ARC
  8
0-9
  6
CONTINUOUS
 62
    7
 10
380.80511
 20
220.10823
 40
117
 50
184.5682
 51
197.93177
  0
ARC
  8
0-9
  6
CONTINUOUS
 62
    7
 10
268.1641
 20
211.10826
 40
4.0000001
 50
91.080642
 51
184.56814
  0
ARC
  8
0-9
  6
CONTINUOUS
 62
    7
 10
280.2069
 20
211.10825
 40
4.0000001
 50
5.1122436
 51
91.209503
  0
ARC
  8
0-9
  6
CONTINUOUS
 62
    7
 10
380.80511
 20
220.10826
 40
96.999993
 50
185.11235
 51
197.38763
  0
ARC
  8
0-9
  6
CONTINUOUS
 62
    7
 10
284.42036
 20
189.92593
 40
4.0000001
 50
291.29025
 51
17.387557
  0
ARC
  8
0-9
  6
CONTINUOUS
 62
    7
 10
294.7919
 20
146.82303
 40
4.0000001
 50
220.43174
 51
315.00006
  0
ARC
  8
0-9
  6
CONTINUOUS
 62
    7
 10
380.80511
 20
220.1083
 40
117
 50
207.0682
 51
220.43177
  0
ARC
  8
0-9
  6
CONTINUOUS
 62
    7
 10
280.18249
 20
168.68755
 40
4.0000001
 50
113.58064
 51
207.06814
  0
ARC
  8
0-9
  6
CONTINUOUS
 62
    7
 10
291.30862
 20
173.29612
 40
4.0000001
 50
27.612243
 51
113.7095
  0
ARC
  8
0-9
  6
CONTINUOUS
 62
    7
 10
380.80509
 20
220.10831
 40
96.999993
 50
207.61235
 51
219.88763
  0
ARC
  8
0-9
  6
CONTINUOUS
 62
    7
 10
303.30744
 20
155.33861
 40
4.0000001
 50
313.79025
 51
39.887557
  0
ARC
  8
0-9
  6
CONTINUOUS
 62
    7
 10
329.38427
 20
119.48577
 40
4.0000001
 50
242.93174
 51
337.50006
  0
ARC
  8
0-9
  6
CONTINUOUS
 62
    7
 10
380.80506
 20
220.10835
 40
117
 50
229.5682
 51
242.93177
  0
ARC
  8
0-9
  6
CONTINUOUS
 62
    7
 10
307.51977
 20
134.09518
 40
4.0000001
 50
136.08064
 51
229.56814
  0
ARC
  8
0-9
  6
CONTINUOUS
 62
    7
 10
316.03534
 20
142.61072
 40
4.0000001
 50
50.112243
 51
136.2095
  0
ARC
  8
0-9
  6
CONTINUOUS
 62
    7
 10
380.80503
 20
220.10835
 40
96.999993
 50
230.11235
 51
242.38763
  0
ARC
  8
0-9
  6
CONTINUOUS
 62
    7
 10
333.99284
 20
130.6119
 40
4.0000001
 50
336.29025
 51
62.387557
  0
ARC
  8
0-9
  6
CONTINUOUS
 62
    7
 10
371.80497
 20
107.46736
 40
4.0000001
 50
265.43174
 51
0.000061
  0
ARC
  8
0-9
  6
CONTINUOUS
 62
    7
 10
380.805
 20
220.10838
 40
117
 50
252.0682
 51
265.43177
  0
ARC
  8
0-9
  6
CONTINUOUS
 62
    7
 10
346.01403
 20
112.5975
 40
4.0000001
 50
158.58064
 51
252.06814
  0
ARC
  8
0-9
  6
CONTINUOUS
 62
    7
 10
350.62263
 20
123.72361
 40
4.0000001
 50
72.612243
 51
158.7095
  0
ARC
  8
0-9
  6
CONTINUOUS
 62
    7
 10
380.80498
 20
220.10838
 40
96.999993
 50
252.61235
 51
264.88763
  0
ARC
  8
0-9
  6
CONTINUOUS
 62
    7
 10
371.80494
 20
119.51018
 40
4.0000001
 50
358.79025
 51
84.887557
  0
ARC
  8
0-9
  6
CONTINUOUS
 62
    7
 10
415.59584
 20
112.59749
 40
4.0000001
 50
287.93174
 51
22.500061
  0
ARC
  8
0-9
  6
CONTINUOUS
 62
    7
 10
380.80492
 20
220.10839
 40
117
 50
274.5682
 51
287.93177
  0
ARC
  8
0-9
  6
CONTINUOUS
 62
    7
 10
389.80491
 20
107.46737
 40
4.0000001
 50
181.08064
 51
274.56814
  0
ARC
  8
0-9
  6
CONTINUOUS
 62
    7
 10
389.80493
 20
119.51018
 40
4.0000001
 50
95.112243
 51
181.2095
  0
ARC
  8
0-9
  6
CONTINUOUS
 62
    7
 10
380.80492
 20
220.10836
 40
96.999993
 50
275.11235
 51
287.38763
  0
ARC
  8
0-9
  6
CONTINUOUS
 62
    7
 10
410.98725
 20
123.72361
 40
4.0000001
 50
21.290252
 51
107.38755
  0
ARC
  8
0-9
  6
CONTINUOUS
 62
    7
 10
454.09016
 20
134.09515
 40
4.0000001
 50
310.43174
 51
45.000061
  0
ARC
  8
0-9
  6
CONTINUOUS
 62
    7
 10
380.80487
 20
220.10836
 40
117
 50
297.0682
 51
310.43177
  0
ARC
  8
0-9
  6
CONTINUOUS
 62
    7
 10
432.22558
 20
119.48577
 40
4.0000001
 50
203.58064
 51
297.06814
  0
ARC
  8
0-9
  6
CONTINUOUS
 62
    7
 10
427.61704
 20
130.61187
 40
4.0000001
 50
117.61224
 51
203.7095
  0
ARC
  8
0-9
  6
CONTINUOUS
 62
    7
 10
380.80487
 20
220.10834
 40
96.999993
 50
297.61235
 51
309.88763
  0
ARC
  8
0-9
  6
CONTINUOUS
 62
    7
 10
445.57454
 20
142.6107
 40
4.0000001
 50
43.790252
 51
129.88755
  0
ARC
  8
0-9
  6
CONTINUOUS
 62
    7
 10
481.42741
 20
168.68754
 40
4.0000001
 50
332.93174
 51
67.500061
  0
ARC
  8
0-9
  6
CONTINUOUS
 62
    7
 10
380.80482
 20
220.10832
 40
117
 50
319.5682
 51
332.93177
  0
ARC
  8
0-9
  6
CONTINUOUS
 62
    7
 10
466.81798
 20
146.82303
 40
4.0000001
 50
226.08064
 51
319.56814
  0
ARC
  8
0-9
  6
CONTINUOUS
 62
    7
 10
458.30246
 20
155.3386
 40
4.0000001
 50
140.11224
 51
226.2095
  0
ARC
  8
0-9
  6
CONTINUOUS
 62
    7
 10
380.80482
 20
220.1083
 40
96.999993
 50
320.11235
 51
332.38763
  0
ARC
  8
0-9
  6
CONTINUOUS
 62
    7
 10
470.30128
 20
173.2961
 40
4.0000001
 50
66.290252
 51
152.38755
  0
ARC
  8
0-9
  6
CONTINUOUS
 62
    7
 10
493.4458
 20
211.10825
 40
4.0000001
 50
355.43174
 51
90.000061
  0
ARC
  8
0-9
  6
CONTINUOUS
 62
    7
 10
380.80479
 20
220.10827
 40
117
 50
342.0682
 51
355.43177
  0
ARC
  8
0-9
  6
CONTINUOUS
 62
    7
 10
488.31568
 20
185.31731
 40
4.0000001
 50
248.58064
 51
342.06814
  0
ARC
  8
0-9
  6
CONTINUOUS
 62
    7
 10
477.18955
 20
189.92591
 40
4.0000001
 50
162.61224
 51
248.7095
  0
ARC
  8
0-9
  6
CONTINUOUS
 62
    7
 10
380.80479
 20
220.10824
 40
96.999993
 50
342.61235
 51
354.88763
  0
ARC
  8
0-9
  6
CONTINUOUS
 62
    7
 10
481.40297
 20
211.10822
 40
4.0000001
 50
88.790252
 51
174.88755
  0
ARC
  8
0-9
  6
CONTINUOUS
 62
    7
 10
488.31568
 20
254.89912
 40
4.0000001
 50
17.931747
 51
112.50006
  0
ARC
  8
0-9
  6
CONTINUOUS
 62
    7
 10
380.80479
 20
220.1082
 40
117
 50
4.5682067
 51
17.931777
  0
ARC
  8
0-9
  6
CONTINUOUS
 62
    7
 10
493.4458
 20
229.10818
 40
4.0000001
 50
271.08064
 51
4.5681457
  0
ARC
  8
0-9
  6
CONTINUOUS
 62
    7
 10
481.40297
 20
229.10818
 40
4.0000001
 50
185.11224
 51
271.2095
  0
ARC
  8
0-9
  6
CONTINUOUS
 62
    7
 10
380.80479
 20
220.10818
 40
96.999993
 50
5.1123504
 51
17.387634
  0
ARC
  8
0-9
  6
CONTINUOUS
 62
    7
 10
477.18955
 20
250.2905
 40
4.0000001
 50
111.29025
 51
197.38755
  0
ARC
  8
0-9
  6
CONTINUOUS
 62
    7
 10
466.81798
 20
293.39339
 40
4.0000001
 50
40.431747
 51
135.00006
  0
ARC
  8
0-9
  6
CONTINUOUS
 62
    7
 10
380.80479
 20
220.10814
 40
117
 50
27.068206
 51
40.431777
  0
ARC
  8
0-9
  6
CONTINUOUS
 62
    7
 10
481.42741
 20
271.52888
 40
4.0000001
 50
293.58064
 51
27.068145
  0
ARC
  8
0-9
  6
CONTINUOUS
 62
    7
 10
470.30128
 20
266.92032
 40
4.0000001
 50
207.61224
 51
293.7095
  0
ARC
  8
0-9
  6
CONTINUOUS
 62
    7
 10
380.80482
 20
220.10812
 40
96.999993
 50
27.61235
 51
39.887634
  0
ARC
  8
0-9
  6
CONTINUOUS
 62
    7
 10
458.30246
 20
284.87782
 40
4.0000001
 50
133.79025
 51
219.88755
  0
CIRCLE
  8
0-0
  6
CONTINUOUS
 62
    7
 10
390.80486
 20
324.10788
 40
2
  0
CIRCLE
  8
0-0
  6
CONTINUOUS
 62
    7
 10
370.80483
 20
324.10788
 40
2
  0
CIRCLE
  8
0-0
  6
CONTINUOUS
 62
    7
 10
370.80483
 20
324.10788
 40
1.7499999
  0
CIRCLE
  8
0-0
  6
CONTINUOUS
 62
    7
 10
390.80486
 20
324.10788
 40
1.7499999
  0
CIRCLE
  8
0-0
  6
CONTINUOUS
 62
    7
 10
276.80488
 20
230.10787
 40
2
  0
CIRCLE
  8
0-0
  6
CONTINUOUS
 62
    7
 10
276.80488
 20
210.10784
 40
2
  0
CIRCLE
  8
0-0
  6
CONTINUOUS
 62
    7
 10
276.80488
 20
210.10784
 40
1.7499999
  0
CIRCLE
  8
0-0
  6
CONTINUOUS
 62
    7
 10
276.80488
 20
230.10787
 40
1.7499999
  0
CIRCLE
  8
0-0
  6
CONTINUOUS
 62
    7
 10
370.80489
 20
116.10789
 40
2
  0
CIRCLE
  8
0-0
  6
CONTINUOUS
 62
    7
 10
390.80491
 20
116.10789
 40
2
  0
CIRCLE
  8
0-0
  6
CONTINUOUS
 62
    7
 10
390.80491
 20
116.10789
 40
1.7499999
  0
CIRCLE
  8
0-0
  6
CONTINUOUS
 62
    7
 10
370.80489
 20
116.10789
 40
1.7499999
  0
CIRCLE
  8
0-0
  6
CONTINUOUS
 62
    7
 10
484.80484
 20
210.1079
 40
2
  0
CIRCLE
  8
0-0
  6
CONTINUOUS
 62
    7
 10
484.80484
 20
230.10792
 40
2
  0
CIRCLE
  8
0-0
  6
CONTINUOUS
 62
    7
 10
484.80484
 20
230.10792
 40
1.7499999
  0
CIRCLE
  8
0-0
  6
CONTINUOUS
 62
    7
 10
484.80484
 20
210.1079
 40
1.7499999
  0
CIRCLE
  8
0-0
  6
CONTINUOUS
 62
    7
 10
380.80495
 20
220.10822
 40
128.45798
  0
TEXT
  8
0-2
 10
456.49068
 20
50.721564
 40
6
 41
1
 50
0
  1
SVD support ring用フランジ 17度側
  0
TEXT
  8
0-f
 10
537.73317
 20
400.84708
 40
6
 41
1
 50
0
  1
縮尺 1/2.0
  0
TEXT
  8
0-f
 10
14.292762
 20
401.28704
 40
6
 41
1
 50
0
  1
C 0.2
  0
TEXT
  8
0-2
 10
456.49068
 20
40.721566
 40
6
 41
1
 50
0
  1
98/04/01 名古屋大学Ｎ研　居波
  0
TEXT
  8
0-1
 10
163.39459
 20
64.476796
 40
5
 41
1
 50
0
  1
35.00
  0
TEXT
  8
0-1
 10
215.77815
 20
86.455691
 40
5
 41
1
 50
261.49992
  1
17.0ﾟ
  0
TEXT
  8
0-1
 10
121.13034
 20
150.08271
 40
5
 41
1
 50
90
  1
R125.05
  0
TEXT
  8
0-1
 10
137.93459
 20
152.85787
 40
5
 41
1
 50
90
  1
R119.50
  0
TEXT
  8
0-1
 10
195.2997
 20
145.00759
 40
5
 41
1
 50
90
  1
(R135.20)
  0
TEXT
  8
0-1
 10
134.39342
 20
172.86137
 40
4
 41
1
 50
90
  1
+0.00
  0
TEXT
  8
0-1
 10
138.39344
 20
172.86137
 40
4
 41
1
 50
90
  1
-0.10
  0
TEXT
  8
0-1
 10
139.01394
 20
76.288134
 40
5
 41
1
 50
0
  1
1.80
  0
TEXT
  8
0-1
 10
138.10356
 20
285.57682
 40
5
 41
1
 50
0
  1
2.00
  0
TEXT
  8
0-1
 10
154.89456
 20
285.57682
 40
5
 41
1
 50
0
  1
14.00
  0
TEXT
  8
0-1
 10
223.91109
 20
361.60946
 40
5
 41
1
 50
278.50007
  1
17.0ﾟ
  0
TEXT
  8
0-1
 10
191.93542
 20
233.14079
 40
6
 41
1
 50
0
  1
Ａ
  0
TEXT
  8
0-1
 10
133.15338
 20
255.60788
 40
5
 41
1
 50
90
  1
R83.50
  0
TEXT
  8
0-1
 10
223.31828
 20
275.58686
 40
5
 41
1
 50
90
  1
R128.458
  0
TEXT
  8
0-1
 10
129.96102
 20
272.83606
 40
4
 41
1
 50
90
  1
+0.10
  0
TEXT
  8
0-1
 10
133.96099
 20
272.83606
 40
4
 41
1
 50
90
  1
-0.00
  0
TEXT
  8
0-1
 10
200.74093
 20
252.35786
 40
5
 41
1
 50
90
  1
R77.00±0.05
  0
TEXT
  8
0-1
 10
212.24365
 20
260.35789
 40
5
 41
1
 50
90
  1
R93.00±0.05
  0
TEXT
  8
0-1
 10
190.37981
 20
343.43063
 40
5
 41
1
 50
0
  1
4.00
  0
TEXT
  8
0-1
 10
223.38839
 20
394.79458
 40
5
 41
1
 50
0
  1
16-M3タップトウシ
  0
TEXT
  8
0-1
 10
223.38839
 20
387.79458
 40
5
 41
1
 50
0
  1
22.5°間隔
  0
TEXT
  8
0-1
 10
428.5671
 20
396.00572
 40
5
 41
1
 50
0
  1
12-φ4キリトウシ
  0
TEXT
  8
0-1
 10
428.5671
 20
389.00572
 40
5
 41
1
 50
0
  1
φ6座グリ深サ4
  0
TEXT
  8
0-1
 10
428.5671
 20
382.00572
 40
5
 41
1
 50
0
  1
PCD 244
  0
TEXT
  8
0-1
 10
428.5671
 20
375.00569
 40
5
 41
1
 50
0
  1
30°間隔
  0
TEXT
  8
0-1
 10
520.71835
 20
128.12517
 40
5
 41
1
 50
0
  1
8-M3タップ深サ10
  0
TEXT
  8
0-1
 10
520.71835
 20
121.12519
 40
5
 41
1
 50
0
  1
下穴深サ13
  0
TEXT
  8
0-1
 10
520.71835
 20
114.12522
 40
5
 41
1
 50
0
  1
PCD 208
  0
TEXT
  8
0-1
 10
520.71835
 20
107.12519
 40
5
 41
1
 50
0
  1
45°間隔
  0
TEXT
  8
0-1
 10
513.63742
 20
342.30649
 40
5
 41
1
 50
0
  1
8-M3タップトウシ
  0
TEXT
  8
0-1
 10
513.63742
 20
335.30646
 40
5
 41
1
 50
0
  1
PCD 176
  0
TEXT
  8
0-1
 10
513.63742
 20
328.30649
 40
5
 41
1
 50
0
  1
45°間隔
  0
TEXT
  8
0-1
 10
513.63742
 20
321.30649
 40
5
 41
1
 50
0
  1
(SVD固定用)
  0
TEXT
  8
0-1
 10
519.41445
 20
298.84055
 40
5
 41
1
 50
0
  1
8-φ3.4キリトウシ
  0
TEXT
  8
0-1
 10
519.41445
 20
291.84052
 40
5
 41
1
 50
0
  1
φ6座グリ深サ4
  0
TEXT
  8
0-1
 10
519.41445
 20
284.84049
 40
5
 41
1
 50
0
  1
PCD 162
  0
TEXT
  8
0-1
 10
519.41445
 20
277.84052
 40
5
 41
1
 50
0
  1
45°間隔
  0
TEXT
  8
0-2
 10
456.49068
 20
20.72156
 40
6
 41
1
 50
0
  1
個数　1　材質　アルミ
  0
TEXT
  8
0-1
 10
131.39339
 20
331.46211
 40
5
 41
1
 50
0
  1
25.00
  0
TEXT
  8
0-1
 10
90.403369
 20
232.90275
 40
6
 41
1
 50
0
  1
//
  0
TEXT
  8
0-1
 10
100.00936
 20
232.90275
 40
6
 41
1
 50
0
  1
 0.03
  0
TEXT
  8
0-1
 10
124.23302
 20
232.90275
 40
6
 41
1
 50
0
  1
Ａ
  0
TEXT
  8
0-0
 10
327.61158
 20
352.60563
 40
5
 41
1
 50
292.4999
  1
Ａ
  0
TEXT
  8
0-0
 10
354.77087
 20
288.64988
 40
5
 41
1
 50
292.5
  1
Ａ'
  0
TEXT
  8
0-0
 10
140.68964
 20
372.41713
 40
6
 41
1
 50
0
  1
Ａ-Ａ'断面
  0
TEXT
  8
0-0
 10
366.78399
 20
265.72888
 40
5
 41
1
 50
11.249969
  1
22.5ﾟ
  0
TEXT
  8
0-1
 10
429.83538
 20
318.58243
 40
5
 41
1
 50
337.50003
  1
10.00
  0
TEXT
  8
0-1
 10
461.09013
 20
307.12126
 40
5
 41
1
 50
0
  1
R4.0
  0
TEXT
  8
0-1
 10
410.64598
 20
259.92729
 40
5
 41
1
 50
52.000015
  1
R117.0
  0
TEXT
  8
0-1
 10
400.43884
 20
256.11513
 40
5
 41
1
 50
59.999954
  1
R97.0
  0
TEXT
  8
0-1
 10
394.9293
 20
160.60798
 40
5
 41
1
 50
90
  1
104.00
  0
TEXT
  8
0-1
 10
355.96415
 20
109.44771
 40
5
 41
1
 50
0
  1
10.00
  0
TEXT
  8
0-1
 10
393.6183
 20
109.00602
 40
5
 41
1
 50
0
  1
10.00
  0
TEXT
  8
0-1
 10
399.7162
 20
68.76407
 40
5
 41
1
 50
0
  1
8-M4トウシ
  0
TEXT
  8
0-0
 10
37.896218
 20
373.57373
 40
6
 41
1
 50
0
  1
Ｂ-Ｂ'断面
  0
TEXT
  8
0-0
 10
302.84372
 20
339.6759
 40
5
 41
1
 50
292.4999
  1
Ｂ
  0
TEXT
  8
0-0
 10
342.77911
 20
279.31898
 40
5
 41
1
 50
292.5
  1
Ｂ'
  0
TEXT
  8
0-1
 10
53.394566
 20
328.25387
 40
5
 41
1
 50
0
  1
15.00
  0
TEXT
  8
0-0
 10
429.77525
 20
222.43418
 40
6
 41
1
 50
0
  1
Ｃ
  0
TEXT
  8
0-0
 10
226.99906
 20
220.85121
 40
6
 41
1
 50
0
  1
180°
  0
TEXT
  8
0-0
 10
376.6008
 20
63.879974
 40
6
 41
1
 50
0
  1
270°
  0
TEXT
  8
0-0
 10
376.6008
 20
371.18989
 40
6
 41
1
 50
0
  1
90°
  0
TEXT
  8
0-0
 10
522.51772
 20
217.16645
 40
6
 41
1
 50
0
  1
0°
  0
TEXT
  8
0-0
 10
255.25838
 20
103.89003
 40
5
 41
1
 50
0
  1
35.00
  0
TEXT
  8
0-0
 10
231.45563
 20
94.52285
 40
5
 41
1
 50
0
  1
2.00
  0
TEXT
  8
0-0
 10
246.75838
 20
94.52285
 40
5
 41
1
 50
0
  1
14.00
  0
TEXT
  8
0-1
 10
289.67293
 20
65.888671
 40
5
 41
1
 50
0
  1
４箇所(0,90,180,270°)に
  0
TEXT
  8
0-1
 10
289.67293
 20
58.888671
 40
5
 41
1
 50
0
  1
ケガキ線を入れる事
  0
TEXT
  8
0-1
 10
288.89853
 20
23.887165
 40
6
 41
1
 50
0
  1
矢視　Ｃ
  0
TEXT
  8
0-2
 10
456.49063
 20
30.721561
 40
6
 41
1
 50
0
  1
98/08/25  変更
  0
ENDSEC
  0
EOF
