  0
SECTION
  2
HEADER
  9
$EXTMIN
 10
0
 20
0
  9
$EXTMAX
 10
594
 20
420
  0
ENDSEC
  0
SECTION
  2
TABLES
  0
TABLE
  2
LTYPE
 70
     9
  0
LTYPE
  2
CONTINUOUS
 70
    64
  3
実線
 72
    65
 73
     0
 40
0.0
  0
LTYPE
  2
DASHED1
 70
    64
  3
--  --  --  --  --  --  --  --  
 72
    65
 73
     2
 40
2.5
 49
1.25
 49
-1.25
  0
LTYPE
  2
DASHED2
 70
    64
  3
----    ----    ----    ----    
 72
    65
 73
     2
 40
5.0
 49
2.5
 49
-2.5
  0
LTYPE
  2
DASHED3
 70
    64
  3
------  ------  ------  ------  
 72
    65
 73
     2
 40
5.0
 49
3.75
 49
-1.25
  0
LTYPE
  2
CENTER1
 70
    64
  3
----- - ----- - ----- - ----- - 
 72
    65
 73
     4
 40
10.0
 49
6.25
 49
-1.25
 49
1.25
 49
-1.25
  0
LTYPE
  2
CENTER2
 70
    64
  3
----------  --  ----------  --  
 72
    65
 73
     4
 40
20.0
 49
12.5
 49
-2.5
 49
2.5
 49
-2.5
  0
LTYPE
  2
PHANTOM1
 70
    64
  3
--- - - --- - - --- - - --- - - 
 72
    65
 73
     6
 40
10.0
 49
3.25
 49
-1.25
 49
1.25
 49
-1.25
 49
1.25
 49
-1.25
  0
LTYPE
  2
PHANTOM2
 70
    64
  3
--------  -  -  --------  -  -  
 72
    65
 73
     6
 40
20.0
 49
10.0
 49
-2.5
 49
1.25
 49
-2.5
 49
1.25
 49
-2.5
  0
LTYPE
  2
DOT
 70
    64
  3
-   -   -   -   -   -   -   -   
 72
    65
 73
     2
 40
2.5
 49
0.625
 49
-1.875
  0
ENDTAB
  0
TABLE
  2
STYLE
 70
    1
  0
STYLE
  2
STANDARD
 70
    64
 40
0.0
 41
1.0
 42
0.0
 50
0.0
 71
     0
  3
TXT
  4
BIGFONT
  0
ENDTAB
  0
TABLE
  2
LAYER
 70
    5
  0
LAYER
  2
0-0
 70
   64
 62
    7
  6
CONTINUOUS
  0
LAYER
  2
0-1
 70
   64
 62
    7
  6
CONTINUOUS
  0
LAYER
  2
0-2
 70
   64
 62
    7
  6
CONTINUOUS
  0
LAYER
  2
0-f
 70
   64
 62
    7
  6
CONTINUOUS
  0
LAYER
  2
ADD_LINE
 70
   64
 62
    7
  6
CONTINUOUS
  0
ENDTAB
  0
ENDSEC
  0
SECTION
  2
ENTITIES
  0
LINE
  8
0-0
  6
CONTINUOUS
 62
    7
 10
452.9846
 20
307.11003
 11
454.98455
 21
307.11003
  0
LINE
  8
0-1
  6
CONTINUOUS
 62
    4
 10
435.07723
 20
223.61003
 11
435.07723
 21
300.61006
  0
LINE
  8
0-1
  6
CONTINUOUS
 62
    4
 10
435.07723
 20
223.61003
 11
434.55963
 21
225.54189
  0
LINE
  8
0-1
  6
CONTINUOUS
 62
    4
 10
435.07723
 20
223.61003
 11
435.59488
 21
225.54189
  0
LINE
  8
0-1
  6
CONTINUOUS
 62
    4
 10
435.07723
 20
300.61006
 11
434.55963
 21
298.6782
  0
LINE
  8
0-1
  6
CONTINUOUS
 62
    4
 10
435.07723
 20
300.61006
 11
435.59488
 21
298.6782
  0
LINE
  8
0-1
  6
CONTINUOUS
 62
    4
 10
467.43463
 20
223.61003
 11
467.43463
 21
307.11003
  0
LINE
  8
0-1
  6
CONTINUOUS
 62
    4
 10
454.98455
 20
223.61003
 11
468.83467
 21
223.61003
  0
LINE
  8
0-1
  6
CONTINUOUS
 62
    4
 10
454.98455
 20
307.11003
 11
468.83467
 21
307.11003
  0
LINE
  8
0-1
  6
CONTINUOUS
 62
    4
 10
467.43463
 20
223.61003
 11
466.91701
 21
225.54189
  0
LINE
  8
0-1
  6
CONTINUOUS
 62
    4
 10
467.43463
 20
223.61003
 11
467.95225
 21
225.54189
  0
LINE
  8
0-1
  6
CONTINUOUS
 62
    4
 10
467.43463
 20
307.11003
 11
466.91701
 21
305.17817
  0
LINE
  8
0-1
  6
CONTINUOUS
 62
    4
 10
467.43463
 20
307.11003
 11
467.95225
 21
305.17817
  0
LINE
  8
0-1
  6
CONTINUOUS
 62
    4
 10
289.96438
 20
223.61003
 11
289.44674
 21
225.54189
  0
LINE
  8
0-1
  6
CONTINUOUS
 62
    4
 10
289.96438
 20
223.61003
 11
290.48201
 21
225.54189
  0
LINE
  8
0-1
  6
CONTINUOUS
 62
    4
 10
282.83645
 20
259.44454
 11
283.09751
 21
257.46164
  0
LINE
  8
0-1
  6
CONTINUOUS
 62
    4
 10
281.82433
 20
223.61003
 11
291.36437
 21
223.61003
  0
LINE
  8
0-1
  6
CONTINUOUS
 62
    4
 10
275.31605
 20
256.32948
 11
284.12986
 21
259.98029
  0
LINE
  8
ADD_LINE
  6
DOT
 62
    4
 10
299.55583
 20
368.3895
 11
299.55583
 21
357.77209
  0
LINE
  8
0-1
  6
CONTINUOUS
 62
    4
 10
299.55583
 20
368.3895
 11
327.22219
 21
368.3895
  0
LINE
  8
0-1
  6
CONTINUOUS
 62
    4
 10
227.3217
 20
298.44428
 11
228.34945
 21
300.16003
  0
LINE
  8
0-1
  6
CONTINUOUS
 62
    4
 10
227.3217
 20
298.44428
 11
229.06963
 21
299.41627
  0
LINE
  8
0-1
  6
CONTINUOUS
 62
    4
 10
294.39224
 20
363.38951
 11
327.22219
 21
363.38951
  0
LINE
  8
0-1
  6
CONTINUOUS
 62
    4
 10
289.22862
 20
358.38954
 11
327.22219
 21
358.38954
  0
LINE
  8
0-0
  6
CONTINUOUS
 62
    7
 10
446.98458
 20
301.61004
 11
450.98459
 21
301.61004
  0
LINE
  8
0-0
  6
CONTINUOUS
 62
    7
 10
446.98458
 20
307.61001
 11
450.98459
 21
307.61001
  0
LINE
  8
ADD_LINE
  6
DOT
 62
    4
 10
458.03991
 20
269.53572
 11
471.33642
 21
269.53572
  0
LINE
  8
ADD_LINE
  6
DOT
 62
    4
 10
463.30115
 20
269.34439
 11
463.30115
 21
281.68437
  0
LINE
  8
ADD_LINE
  6
DOT
 62
    4
 10
468.30111
 20
269.34439
 11
468.30111
 21
281.68437
  0
LINE
  8
ADD_LINE
  6
DOT
 62
    7
 10
426.57915
 20
68.803092
 11
426.57915
 21
6.880309
  0
LINE
  8
ADD_LINE
  6
DOT
 62
    7
 10
418.55214
 20
58.482629
 11
559.59845
 21
58.482629
  0
LINE
  8
ADD_LINE
  6
DOT
 62
    7
 10
418.55214
 20
48.482627
 11
559.59845
 21
48.482627
  0
LINE
  8
ADD_LINE
  6
DOT
 62
    7
 10
418.55214
 20
38.482626
 11
559.59845
 21
38.482626
  0
LINE
  8
ADD_LINE
  6
DOT
 62
    7
 10
418.55214
 20
28.482625
 11
559.59845
 21
28.482625
  0
LINE
  8
0-0
  6
CONTINUOUS
 62
    7
 10
450.98459
 20
307.61001
 11
450.98459
 21
301.61004
  0
LINE
  8
0-0
  6
CENTER1
 62
    7
 10
139.40999
 20
361.01342
 11
172.24408
 21
281.74493
  0
LINE
  8
0-0
  6
CENTER1
 62
    7
 10
65.89218
 20
277.63679
 11
137.68676
 21
247.89851
  0
LINE
  8
0-0
  6
CENTER1
 62
    7
 10
68.255171
 20
170.5621
 11
133.41537
 21
197.55229
  0
LINE
  8
0-0
  6
CENTER1
 62
    7
 10
48.162162
 20
223.61003
 11
520.61006
 21
223.61003
  0
LINE
  8
0-0
  6
CENTER1
 62
    7
 10
154.74332
 20
182.02905
 11
98.162148
 21
125.44788
  0
LINE
  8
0-0
  6
CENTER1
 62
    7
 10
174.69793
 20
171.3993
 11
143.96806
 21
97.210805
  0
LINE
  8
0-0
  6
CENTER1
 62
    7
 10
249.3241
 20
351.56282
 11
221.01389
 21
283.21587
  0
LINE
  8
0-0
  6
CENTER1
 62
    7
 10
294.25096
 20
321.53669
 11
238.87444
 21
266.16014
  0
LINE
  8
0-1
  6
CONTINUOUS
 62
    4
 10
282.83645
 20
259.44454
 11
284.05401
 21
257.85782
  0
LINE
  8
0-0
  6
CENTER1
 62
    7
 10
251.81032
 20
246.59309
 11
325.54355
 21
277.13441
  0
LINE
  8
0-0
  6
CENTER1
 62
    7
 10
255.87394
 20
198.94377
 11
323.25011
 21
171.03564
  0
LINE
  8
0-0
  6
CENTER1
 62
    7
 10
236.56073
 20
183.37361
 11
293.10426
 21
126.83012
  0
LINE
  8
0-0
  6
CENTER1
 62
    7
 10
219.95614
 20
166.55779
 11
248.10783
 21
98.593617
  0
LINE
  8
0-0
  6
CENTER1
 62
    7
 10
196.32432
 20
364.65637
 11
196.32432
 21
83.710426
  0
LINE
  8
0-1
  6
CONTINUOUS
 62
    4
 10
227.3217
 20
298.44428
 11
299.55583
 21
368.3895
  0
LINE
  8
0-0
  6
CONTINUOUS
 62
    7
 10
454.98455
 20
352.61007
 11
454.98455
 21
307.11003
  0
LINE
  8
0-0
  6
CENTER1
 62
    7
 10
99.882249
 20
320.05211
 11
152.42963
 21
267.50473
  0
LINE
  8
0-0
  6
CONTINUOUS
 62
    7
 10
444.98457
 20
344.11004
 11
448.98459
 21
344.11004
  0
LINE
  8
0-0
  6
CONTINUOUS
 62
    7
 10
444.98457
 20
350.11001
 11
448.98459
 21
350.11001
  0
LINE
  8
0-0
  6
CONTINUOUS
 62
    7
 10
452.48457
 20
350.61003
 11
452.9846
 21
349.61003
  0
LINE
  8
0-0
  6
CONTINUOUS
 62
    7
 10
452.9846
 20
351.61001
 11
452.9846
 21
349.61003
  0
LINE
  8
0-0
  6
CONTINUOUS
 62
    7
 10
454.98455
 20
351.61001
 11
452.9846
 21
351.61001
  0
LINE
  8
0-0
  6
CONTINUOUS
 62
    7
 10
454.98455
 20
349.61003
 11
452.9846
 21
349.61003
  0
LINE
  8
0-0
  6
CENTER1
 62
    7
 10
458.09959
 20
350.61003
 11
445.60315
 21
350.61003
  0
LINE
  8
0-0
  6
CONTINUOUS
 62
    7
 10
447.98458
 20
352.61007
 11
454.98455
 21
352.61007
  0
LINE
  8
0-0
  6
CENTER1
 62
    7
 10
441.21609
 20
304.61002
 11
458.76431
 21
304.61002
  0
LINE
  8
0-0
  6
CENTER1
 62
    7
 10
441.21609
 20
347.11002
 11
458.76431
 21
347.11002
  0
LINE
  8
0-1
  6
CONTINUOUS
 62
    4
 10
447.98458
 20
300.61006
 11
433.67727
 21
300.61006
  0
LINE
  8
0-1
  6
CONTINUOUS
 62
    4
 10
310.42345
 20
270.87146
 11
331.54042
 21
307.44713
  0
LINE
  8
ADD_LINE
  6
DOT
 62
    4
 10
331.54042
 20
307.44713
 11
331.54042
 21
290.38613
  0
LINE
  8
0-1
  6
CONTINUOUS
 62
    4
 10
310.42345
 20
270.87146
 11
310.9411
 21
272.80329
  0
LINE
  8
0-1
  6
CONTINUOUS
 62
    4
 10
310.42345
 20
270.87146
 11
311.83766
 21
272.28566
  0
LINE
  8
0-1
  6
CONTINUOUS
 62
    4
 10
331.54042
 20
307.44713
 11
362.40597
 21
307.44713
  0
LINE
  8
0-1
  6
CONTINUOUS
 62
    4
 10
328.65367
 20
302.44713
 11
362.40597
 21
302.44713
  0
LINE
  8
0-1
  6
CONTINUOUS
 62
    4
 10
325.76691
 20
297.44714
 11
362.40597
 21
297.44714
  0
LINE
  8
0-1
  6
CONTINUOUS
 62
    4
 10
454.98455
 20
351.61001
 11
466.8822
 21
372.21728
  0
LINE
  8
0-1
  6
CONTINUOUS
 62
    4
 10
454.98455
 20
351.61001
 11
455.50223
 21
353.54187
  0
LINE
  8
0-1
  6
CONTINUOUS
 62
    4
 10
454.98455
 20
351.61001
 11
456.39882
 21
353.02422
  0
LINE
  8
0-1
  6
CONTINUOUS
 62
    4
 10
466.8822
 20
372.21728
 11
495.7744
 21
372.21728
  0
LINE
  8
0-0
  6
CONTINUOUS
 62
    7
 10
454.18823
 20
307.11003
 11
454.98455
 21
307.90638
  0
LINE
  8
0-0
  6
CONTINUOUS
 62
    7
 10
453.43329
 20
351.61001
 11
454.43335
 21
352.61007
  0
LINE
  8
0-0
  6
CONTINUOUS
 62
    7
 10
453.46174
 20
348.81002
 11
454.26176
 21
349.61003
  0
LINE
  8
0-0
  6
CONTINUOUS
 62
    7
 10
448.98459
 20
350.11001
 11
448.98459
 21
344.11004
  0
LINE
  8
0-0
  6
CONTINUOUS
 62
    7
 10
452.9846
 20
307.11003
 11
452.9846
 21
223.61003
  0
LINE
  8
0-0
  6
CONTINUOUS
 62
    7
 10
451.9846
 20
302.07795
 11
452.81669
 21
302.91002
  0
LINE
  8
0-1
  6
CONTINUOUS
 62
    4
 10
463.99544
 20
367.21728
 11
495.7744
 21
367.21728
  0
LINE
  8
0-1
  6
CONTINUOUS
 62
    4
 10
409.93393
 20
223.61003
 11
409.93393
 21
352.61007
  0
LINE
  8
0-1
  6
CONTINUOUS
 62
    4
 10
447.98458
 20
223.61003
 11
408.53392
 21
223.61003
  0
LINE
  8
0-1
  6
CONTINUOUS
 62
    4
 10
447.98458
 20
352.61007
 11
408.53392
 21
352.61007
  0
LINE
  8
0-1
  6
CONTINUOUS
 62
    4
 10
409.93393
 20
223.61003
 11
409.41628
 21
225.54189
  0
LINE
  8
0-1
  6
CONTINUOUS
 62
    4
 10
409.93393
 20
223.61003
 11
410.45158
 21
225.54189
  0
LINE
  8
0-1
  6
CONTINUOUS
 62
    4
 10
409.93393
 20
352.61007
 11
409.41628
 21
350.67819
  0
LINE
  8
0-1
  6
CONTINUOUS
 62
    4
 10
409.93393
 20
352.61007
 11
410.45158
 21
350.67819
  0
LINE
  8
0-f
  6
CONTINUOUS
 62
    7
 10
0
 20
421.99229
 11
0
 21
0
  0
LINE
  8
0-f
  6
CONTINUOUS
 62
    7
 10
0
 20
0
 11
594
 21
0
  0
LINE
  8
0-f
  6
CONTINUOUS
 62
    7
 10
594
 20
0
 11
594
 21
421.99229
  0
LINE
  8
0-f
  6
CONTINUOUS
 62
    7
 10
594
 20
421.99229
 11
0
 21
421.99229
  0
LINE
  8
0-2
  6
CONTINUOUS
 62
    7
 10
444.98454
 20
352.61007
 11
444.98454
 21
316.61004
  0
LINE
  8
0-2
  6
CONTINUOUS
 62
    7
 10
444.98454
 20
316.61004
 11
446.98455
 21
316.61004
  0
LINE
  8
0-2
  6
CONTINUOUS
 62
    7
 10
446.98455
 20
316.61004
 11
446.98455
 21
223.61003
  0
LINE
  8
0-0
  6
CONTINUOUS
 62
    7
 10
448.98459
 20
348.81002
 11
454.98455
 21
348.81002
  0
LINE
  8
0-0
  6
CONTINUOUS
 62
    7
 10
448.98459
 20
345.41003
 11
454.98455
 21
345.41003
  0
LINE
  8
0-0
  6
CONTINUOUS
 62
    7
 10
446.27648
 20
350.11001
 11
448.77647
 21
352.61007
  0
LINE
  8
ADD_LINE
  6
DOT
 62
    7
 10
449.98454
 20
369.24325
 11
449.98454
 21
69.949806
  0
LINE
  8
0-0
  6
CONTINUOUS
 62
    7
 10
448.98459
 20
349.98969
 11
451.60494
 21
352.61007
  0
LINE
  8
0-0
  6
CONTINUOUS
 62
    7
 10
452.48457
 20
350.61003
 11
452.9846
 21
351.61001
  0
LINE
  8
0-0
  6
CONTINUOUS
 62
    7
 10
448.98459
 20
344.33289
 11
450.06175
 21
345.41003
  0
LINE
  8
0-0
  6
CONTINUOUS
 62
    7
 10
444.98454
 20
340.33282
 11
448.76176
 21
344.11004
  0
LINE
  8
0-0
  6
CONTINUOUS
 62
    7
 10
444.98454
 20
337.5044
 11
452.89017
 21
345.41003
  0
LINE
  8
0-0
  6
CONTINUOUS
 62
    7
 10
444.98454
 20
334.67599
 11
454.98455
 21
344.67602
  0
LINE
  8
0-0
  6
CONTINUOUS
 62
    7
 10
444.98454
 20
343.16123
 11
445.93335
 21
344.11004
  0
LINE
  8
0-0
  6
CONTINUOUS
 62
    7
 10
450.63333
 20
348.81002
 11
452.45896
 21
350.63565
  0
LINE
  8
0-0
  6
CONTINUOUS
 62
    7
 10
444.98454
 20
331.84749
 11
454.98455
 21
341.84758
  0
LINE
  8
0-0
  6
CONTINUOUS
 62
    7
 10
444.98454
 20
329.0191
 11
454.98455
 21
339.01914
  0
LINE
  8
0-0
  6
CONTINUOUS
 62
    7
 10
444.98454
 20
326.19066
 11
454.98455
 21
336.1907
  0
LINE
  8
0-0
  6
CONTINUOUS
 62
    7
 10
444.98454
 20
323.36224
 11
454.98455
 21
333.36226
  0
LINE
  8
0-0
  6
CONTINUOUS
 62
    7
 10
444.98454
 20
320.5338
 11
454.98455
 21
330.53384
  0
LINE
  8
0-0
  6
CONTINUOUS
 62
    7
 10
444.98454
 20
317.70539
 11
454.98455
 21
327.7054
  0
LINE
  8
0-0
  6
CONTINUOUS
 62
    7
 10
446.71767
 20
316.61004
 11
454.98455
 21
324.87701
  0
LINE
  8
0-0
  6
CONTINUOUS
 62
    7
 10
446.98455
 20
314.04851
 11
454.98455
 21
322.04851
  0
LINE
  8
0-0
  6
CONTINUOUS
 62
    7
 10
450.98459
 20
302.91002
 11
452.9846
 21
302.91002
  0
LINE
  8
0-0
  6
CONTINUOUS
 62
    7
 10
450.98459
 20
306.31002
 11
452.9846
 21
306.31002
  0
LINE
  8
0-0
  6
CONTINUOUS
 62
    7
 10
450.5167
 20
300.61006
 11
452.9846
 21
303.07801
  0
LINE
  8
0-0
  6
CONTINUOUS
 62
    7
 10
446.98455
 20
300.61006
 11
452.9846
 21
300.61006
  0
LINE
  8
0-0
  6
CONTINUOUS
 62
    7
 10
447.68823
 20
300.61006
 11
448.68824
 21
301.61004
  0
LINE
  8
0-2
  6
CENTER1
 62
    7
 10
438.40019
 20
311.61002
 11
463.43643
 21
311.61002
  0
LINE
  8
0-2
  6
CONTINUOUS
 62
    7
 10
446.98455
 20
313.11003
 11
454.98455
 21
313.11003
  0
LINE
  8
0-2
  6
CONTINUOUS
 62
    7
 10
446.98455
 20
310.11001
 11
454.98455
 21
310.11001
  0
LINE
  8
0-2
  6
CONTINUOUS
 62
    7
 10
446.98455
 20
312.91001
 11
454.98455
 21
312.91001
  0
LINE
  8
0-2
  6
CONTINUOUS
 62
    7
 10
446.98455
 20
310.31003
 11
454.98455
 21
310.31003
  0
LINE
  8
0-0
  6
CONTINUOUS
 62
    7
 10
448.87448
 20
313.11003
 11
454.98455
 21
319.22012
  0
LINE
  8
0-0
  6
CONTINUOUS
 62
    7
 10
449.03132
 20
307.61001
 11
451.5313
 21
310.11001
  0
LINE
  8
0-0
  6
CONTINUOUS
 62
    7
 10
450.98459
 20
306.73478
 11
454.35977
 21
310.11001
  0
LINE
  8
0-0
  6
CONTINUOUS
 62
    7
 10
451.7029
 20
313.11003
 11
454.98455
 21
316.39171
  0
LINE
  8
0-0
  6
CONTINUOUS
 62
    7
 10
446.98455
 20
308.39165
 11
448.70289
 21
310.11001
  0
LINE
  8
0-0
  6
CONTINUOUS
 62
    7
 10
454.98455
 20
223.61003
 11
454.98455
 21
94.610031
  0
LINE
  8
0-2
  6
CONTINUOUS
 62
    7
 10
444.98454
 20
223.61003
 11
444.98454
 21
94.610031
  0
LINE
  8
0-2
  6
CONTINUOUS
 62
    7
 10
444.98454
 20
94.610031
 11
454.98455
 21
94.610031
  0
LINE
  8
0-1
  6
CONTINUOUS
 62
    4
 10
454.98455
 20
93.783328
 11
454.98455
 21
84.498696
  0
LINE
  8
0-1
  6
CONTINUOUS
 62
    4
 10
444.98454
 20
93.783328
 11
444.98454
 21
84.498696
  0
LINE
  8
0-1
  6
CONTINUOUS
 62
    4
 10
454.98455
 20
85.898693
 11
456.91638
 21
85.381051
  0
LINE
  8
0-1
  6
CONTINUOUS
 62
    4
 10
444.98454
 20
85.898693
 11
443.05269
 21
86.416334
  0
LINE
  8
0-1
  6
CONTINUOUS
 62
    4
 10
444.98454
 20
85.898693
 11
443.05269
 21
85.381051
  0
LINE
  8
0-1
  6
CONTINUOUS
 62
    4
 10
454.98455
 20
85.898693
 11
456.91638
 21
86.416334
  0
LINE
  8
0-1
  6
CONTINUOUS
 62
    4
 10
471.28947
 20
85.898693
 11
437.13058
 21
85.898693
  0
LINE
  8
0-1
  6
CONTINUOUS
 62
    4
 10
423.26249
 20
223.61003
 11
423.26249
 21
316.61004
  0
LINE
  8
0-1
  6
CONTINUOUS
 62
    4
 10
423.26249
 20
223.61003
 11
424.6625
 21
223.61003
  0
LINE
  8
0-1
  6
CONTINUOUS
 62
    4
 10
423.26249
 20
223.61003
 11
422.74485
 21
225.54189
  0
LINE
  8
0-1
  6
CONTINUOUS
 62
    4
 10
423.26249
 20
223.61003
 11
423.78014
 21
225.54189
  0
LINE
  8
0-1
  6
CONTINUOUS
 62
    4
 10
423.26249
 20
316.61004
 11
422.74485
 21
314.67818
  0
LINE
  8
0-1
  6
CONTINUOUS
 62
    4
 10
423.26249
 20
316.61004
 11
423.78014
 21
314.67818
  0
LINE
  8
0-1
  6
CONTINUOUS
 62
    4
 10
422.08429
 20
316.61004
 11
444.30487
 21
316.61004
  0
LINE
  8
0-1
  6
CONTINUOUS
 62
    4
 10
230.00047
 20
142.30863
 11
276.44038
 21
61.872346
  0
LINE
  8
0-1
  6
CONTINUOUS
 62
    4
 10
276.44038
 20
61.872346
 11
299.92445
 21
61.872346
  0
LINE
  8
ADD_LINE
  6
DOT
 62
    4
 10
276.44038
 20
61.872346
 11
276.44038
 21
83.208178
  0
LINE
  8
0-1
  6
CONTINUOUS
 62
    4
 10
267.20276
 20
77.872347
 11
299.92445
 21
77.872347
  0
LINE
  8
0-1
  6
CONTINUOUS
 62
    4
 10
271.82157
 20
69.872343
 11
299.92445
 21
69.872343
  0
LINE
  8
0-1
  6
CONTINUOUS
 62
    4
 10
230.00047
 20
142.30863
 11
231.41467
 21
140.89443
  0
LINE
  8
0-1
  6
CONTINUOUS
 62
    4
 10
230.00047
 20
142.30863
 11
230.51811
 21
140.37678
  0
LINE
  8
0-1
  6
CONTINUOUS
 62
    4
 10
459.26338
 20
238.17827
 11
498.75682
 21
238.17827
  0
LINE
  8
0-1
  6
CONTINUOUS
 62
    4
 10
498.75682
 20
242.17826
 11
507.66076
 21
242.17826
  0
LINE
  8
0-1
  6
CONTINUOUS
 62
    4
 10
498.75682
 20
234.17828
 11
507.66076
 21
234.17828
  0
LINE
  8
0-1
  6
CONTINUOUS
 62
    4
 10
498.75682
 20
242.17826
 11
498.75682
 21
234.17828
  0
LINE
  8
0-1
  6
CONTINUOUS
 62
    4
 10
507.66076
 20
242.17826
 11
507.66076
 21
234.17828
  0
LINE
  8
0-1
  6
CONTINUOUS
 62
    4
 10
459.26338
 20
238.17827
 11
452.9846
 21
241.8033
  0
LINE
  8
0-1
  6
CONTINUOUS
 62
    4
 10
459.26338
 20
238.17827
 11
452.9846
 21
234.55321
  0
LINE
  8
0-1
  6
CONTINUOUS
 62
    4
 10
458.82581
 20
237.92563
 11
459.14611
 21
238.24597
  0
LINE
  8
0-1
  6
CONTINUOUS
 62
    4
 10
458.15654
 20
237.53924
 11
458.96682
 21
238.34949
  0
LINE
  8
0-1
  6
CONTINUOUS
 62
    4
 10
457.48732
 20
237.15284
 11
458.78747
 21
238.45301
  0
LINE
  8
0-1
  6
CONTINUOUS
 62
    4
 10
456.81805
 20
236.76644
 11
458.60817
 21
238.55656
  0
LINE
  8
0-1
  6
CONTINUOUS
 62
    4
 10
456.14883
 20
236.3801
 11
458.42882
 21
238.66009
  0
LINE
  8
0-1
  6
CONTINUOUS
 62
    4
 10
455.47961
 20
235.99372
 11
458.24953
 21
238.76361
  0
LINE
  8
0-1
  6
CONTINUOUS
 62
    4
 10
454.81039
 20
235.60733
 11
458.07018
 21
238.86714
  0
LINE
  8
0-1
  6
CONTINUOUS
 62
    4
 10
454.14117
 20
235.22095
 11
457.89088
 21
238.97069
  0
LINE
  8
0-1
  6
CONTINUOUS
 62
    4
 10
453.4719
 20
234.83456
 11
457.71153
 21
239.07421
  0
LINE
  8
0-1
  6
CONTINUOUS
 62
    4
 10
452.9846
 20
234.63008
 11
457.53224
 21
239.17774
  0
LINE
  8
0-1
  6
CONTINUOUS
 62
    4
 10
452.9846
 20
234.91295
 11
457.35294
 21
239.28126
  0
LINE
  8
0-1
  6
CONTINUOUS
 62
    4
 10
452.9846
 20
235.19577
 11
457.17359
 21
239.38479
  0
LINE
  8
0-1
  6
CONTINUOUS
 62
    4
 10
452.9846
 20
235.47864
 11
456.99429
 21
239.48834
  0
LINE
  8
0-1
  6
CONTINUOUS
 62
    4
 10
452.9846
 20
235.76146
 11
456.815
 21
239.59183
  0
LINE
  8
0-1
  6
CONTINUOUS
 62
    4
 10
452.9846
 20
236.04434
 11
456.63565
 21
239.69539
  0
LINE
  8
0-1
  6
CONTINUOUS
 62
    4
 10
452.9846
 20
236.32716
 11
456.45635
 21
239.79891
  0
LINE
  8
0-1
  6
CONTINUOUS
 62
    4
 10
452.9846
 20
236.61003
 11
456.277
 21
239.90243
  0
LINE
  8
0-1
  6
CONTINUOUS
 62
    4
 10
452.9846
 20
236.89285
 11
456.09771
 21
240.00596
  0
LINE
  8
0-1
  6
CONTINUOUS
 62
    4
 10
452.9846
 20
237.17572
 11
455.91836
 21
240.10948
  0
LINE
  8
0-1
  6
CONTINUOUS
 62
    4
 10
452.9846
 20
237.45854
 11
455.73906
 21
240.21303
  0
LINE
  8
0-1
  6
CONTINUOUS
 62
    4
 10
452.9846
 20
237.74142
 11
455.55971
 21
240.31656
  0
LINE
  8
0-1
  6
CONTINUOUS
 62
    4
 10
452.9846
 20
238.02424
 11
455.38042
 21
240.42008
  0
LINE
  8
0-1
  6
CONTINUOUS
 62
    4
 10
452.9846
 20
238.30711
 11
455.20112
 21
240.52361
  0
LINE
  8
0-1
  6
CONTINUOUS
 62
    4
 10
452.9846
 20
238.58993
 11
455.02177
 21
240.62713
  0
LINE
  8
0-1
  6
CONTINUOUS
 62
    4
 10
452.9846
 20
238.87281
 11
454.84248
 21
240.73068
  0
LINE
  8
0-1
  6
CONTINUOUS
 62
    4
 10
452.9846
 20
239.15563
 11
454.66318
 21
240.83418
  0
LINE
  8
0-1
  6
CONTINUOUS
 62
    4
 10
452.9846
 20
239.4385
 11
454.48383
 21
240.93773
  0
LINE
  8
0-1
  6
CONTINUOUS
 62
    4
 10
452.9846
 20
239.72135
 11
454.30453
 21
241.04125
  0
LINE
  8
0-1
  6
CONTINUOUS
 62
    4
 10
452.9846
 20
240.00422
 11
454.12519
 21
241.14478
  0
LINE
  8
0-1
  6
CONTINUOUS
 62
    4
 10
452.9846
 20
240.28701
 11
453.94589
 21
241.2483
  0
LINE
  8
0-1
  6
CONTINUOUS
 62
    4
 10
452.9846
 20
240.56989
 11
453.76654
 21
241.35185
  0
LINE
  8
0-1
  6
CONTINUOUS
 62
    4
 10
452.9846
 20
240.85273
 11
453.58724
 21
241.45538
  0
LINE
  8
0-1
  6
CONTINUOUS
 62
    4
 10
452.9846
 20
241.13561
 11
453.40789
 21
241.5589
  0
LINE
  8
0-1
  6
CONTINUOUS
 62
    4
 10
452.9846
 20
241.4184
 11
453.2286
 21
241.66243
  0
LINE
  8
0-1
  6
CONTINUOUS
 62
    4
 10
452.9846
 20
241.70127
 11
453.0493
 21
241.76595
  0
LINE
  8
0-1
  6
CONTINUOUS
 62
    4
 10
446.58326
 20
237.69551
 11
395.49853
 21
237.69551
  0
LINE
  8
0-1
  6
CONTINUOUS
 62
    4
 10
395.49853
 20
241.6955
 11
349.9421
 21
241.6955
  0
LINE
  8
0-1
  6
CONTINUOUS
 62
    4
 10
395.49853
 20
233.69552
 11
349.9421
 21
233.69552
  0
LINE
  8
0-1
  6
CONTINUOUS
 62
    4
 10
349.9421
 20
241.6955
 11
349.9421
 21
233.69552
  0
LINE
  8
0-1
  6
CONTINUOUS
 62
    4
 10
395.49853
 20
241.6955
 11
395.49853
 21
233.69552
  0
LINE
  8
0-1
  6
CONTINUOUS
 62
    4
 10
382.1974
 20
241.6955
 11
382.1974
 21
233.69552
  0
LINE
  8
0-1
  6
CONTINUOUS
 62
    4
 10
359.91797
 20
241.6955
 11
359.91797
 21
233.69552
  0
CIRCLE
  8
0-0
  6
CONTINUOUS
 62
    7
 10
196.32432
 20
223.61003
 40
77.000004
  0
CIRCLE
  8
0-0
  6
CENTER1
 62
    7
 10
196.32432
 20
223.61003
 40
80.999999
  0
CIRCLE
  8
0-0
  6
CONTINUOUS
 62
    7
 10
165.32697
 20
298.44428
 40
1.7
  0
CIRCLE
  8
0-0
  6
CONTINUOUS
 62
    7
 10
227.3217
 20
298.44428
 40
1.7
  0
CIRCLE
  8
0-0
  6
CONTINUOUS
 62
    7
 10
271.15855
 20
254.6074
 40
1.7
  0
CIRCLE
  8
0-0
  6
CONTINUOUS
 62
    7
 10
271.15855
 20
192.61267
 40
1.7
  0
CIRCLE
  8
0-0
  6
CONTINUOUS
 62
    7
 10
227.3217
 20
148.7758
 40
1.7
  0
CIRCLE
  8
0-0
  6
CONTINUOUS
 62
    7
 10
165.32695
 20
148.7758
 40
1.7
  0
CIRCLE
  8
0-0
  6
CONTINUOUS
 62
    7
 10
121.49008
 20
192.6127
 40
1.7
  0
CIRCLE
  8
0-0
  6
CONTINUOUS
 62
    7
 10
121.4901
 20
254.6074
 40
1.7
  0
CIRCLE
  8
0-0
  6
CONTINUOUS
 62
    7
 10
165.32697
 20
298.44428
 40
2.9000002
  0
CIRCLE
  8
0-0
  6
CONTINUOUS
 62
    7
 10
227.3217
 20
298.44428
 40
2.9000002
  0
CIRCLE
  8
0-0
  6
CONTINUOUS
 62
    7
 10
271.15855
 20
254.6074
 40
2.9000002
  0
CIRCLE
  8
0-0
  6
CONTINUOUS
 62
    7
 10
271.15855
 20
192.61267
 40
2.9000002
  0
CIRCLE
  8
0-0
  6
CONTINUOUS
 62
    7
 10
227.3217
 20
148.7758
 40
2.9000002
  0
CIRCLE
  8
0-0
  6
CONTINUOUS
 62
    7
 10
165.32695
 20
148.7758
 40
2.9000002
  0
CIRCLE
  8
0-0
  6
CONTINUOUS
 62
    7
 10
121.49008
 20
192.6127
 40
2.9000002
  0
CIRCLE
  8
0-0
  6
CONTINUOUS
 62
    7
 10
121.4901
 20
254.6074
 40
2.9000002
  0
ARC
  8
0-1
  6
CONTINUOUS
 62
    4
 10
196.32432
 20
223.61003
 40
93.640046
 50
0
 51
22.5
  0
CIRCLE
  8
0-0
  6
CONTINUOUS
 62
    7
 10
196.32432
 20
223.61003
 40
129
  0
CIRCLE
  8
0-0
  6
CENTER1
 62
    7
 10
196.32432
 20
223.61003
 40
123.5
  0
CIRCLE
  8
0-0
  6
CENTER1
 62
    7
 10
196.32432
 20
223.61003
 40
127
  0
CIRCLE
  8
0-0
  6
CONTINUOUS
 62
    7
 10
319.82434
 20
223.61003
 40
1.7
  0
CIRCLE
  8
0-0
  6
CONTINUOUS
 62
    7
 10
319.82434
 20
223.61003
 40
2.9000002
  0
CIRCLE
  8
0-0
  6
CONTINUOUS
 62
    7
 10
310.42345
 20
270.87146
 40
1.7
  0
CIRCLE
  8
0-0
  6
CONTINUOUS
 62
    7
 10
310.42345
 20
270.87146
 40
2.9000002
  0
CIRCLE
  8
0-0
  6
CONTINUOUS
 62
    7
 10
283.652
 20
310.93773
 40
1.7
  0
CIRCLE
  8
0-0
  6
CONTINUOUS
 62
    7
 10
283.652
 20
310.93773
 40
2.9000002
  0
CIRCLE
  8
0-0
  6
CONTINUOUS
 62
    7
 10
243.58573
 20
337.70915
 40
1.7
  0
CIRCLE
  8
0-0
  6
CONTINUOUS
 62
    7
 10
243.58573
 20
337.70915
 40
2.9000002
  0
CIRCLE
  8
0-0
  6
CONTINUOUS
 62
    7
 10
196.32432
 20
347.11002
 40
1.7
  0
CIRCLE
  8
0-0
  6
CONTINUOUS
 62
    7
 10
196.32432
 20
347.11002
 40
2.9000002
  0
CIRCLE
  8
0-0
  6
CONTINUOUS
 62
    7
 10
149.06292
 20
337.70915
 40
1.7
  0
CIRCLE
  8
0-0
  6
CONTINUOUS
 62
    7
 10
149.06292
 20
337.70915
 40
2.9000002
  0
CIRCLE
  8
0-0
  6
CONTINUOUS
 62
    7
 10
108.99663
 20
310.93773
 40
1.7
  0
CIRCLE
  8
0-0
  6
CONTINUOUS
 62
    7
 10
108.99663
 20
310.93773
 40
2.9000002
  0
CIRCLE
  8
0-0
  6
CONTINUOUS
 62
    7
 10
82.225199
 20
270.87146
 40
1.7
  0
CIRCLE
  8
0-0
  6
CONTINUOUS
 62
    7
 10
82.225199
 20
270.87146
 40
2.9000002
  0
CIRCLE
  8
0-0
  6
CONTINUOUS
 62
    7
 10
72.824322
 20
223.61003
 40
1.7
  0
CIRCLE
  8
0-0
  6
CONTINUOUS
 62
    7
 10
72.824322
 20
223.61003
 40
2.9000002
  0
CIRCLE
  8
0-0
  6
CONTINUOUS
 62
    7
 10
310.42345
 20
176.34863
 40
1.7
  0
CIRCLE
  8
0-0
  6
CONTINUOUS
 62
    7
 10
310.42345
 20
176.34863
 40
2.9000002
  0
CIRCLE
  8
0-0
  6
CONTINUOUS
 62
    7
 10
283.652
 20
136.28235
 40
1.7
  0
CIRCLE
  8
0-0
  6
CONTINUOUS
 62
    7
 10
283.652
 20
136.28235
 40
2.9000002
  0
CIRCLE
  8
0-0
  6
CONTINUOUS
 62
    7
 10
243.58573
 20
109.51092
 40
1.7
  0
CIRCLE
  8
0-0
  6
CONTINUOUS
 62
    7
 10
243.58573
 20
109.51092
 40
2.9000002
  0
CIRCLE
  8
0-0
  6
CONTINUOUS
 62
    7
 10
196.32432
 20
100.11003
 40
1.7
  0
CIRCLE
  8
0-0
  6
CONTINUOUS
 62
    7
 10
196.32432
 20
100.11003
 40
2.9000002
  0
CIRCLE
  8
0-0
  6
CONTINUOUS
 62
    7
 10
149.06292
 20
109.51092
 40
1.7
  0
CIRCLE
  8
0-0
  6
CONTINUOUS
 62
    7
 10
149.06292
 20
109.51092
 40
2.9000002
  0
CIRCLE
  8
0-0
  6
CONTINUOUS
 62
    7
 10
108.99663
 20
136.28237
 40
1.7
  0
CIRCLE
  8
0-0
  6
CONTINUOUS
 62
    7
 10
108.99663
 20
136.28237
 40
2.9000002
  0
CIRCLE
  8
0-0
  6
CONTINUOUS
 62
    7
 10
82.225199
 20
176.34865
 40
1.7
  0
CIRCLE
  8
0-0
  6
CONTINUOUS
 62
    7
 10
82.225199
 20
176.34865
 40
2.9000002
  0
CIRCLE
  8
0-0
  6
DASHED1
 62
    7
 10
244.9251
 20
340.94273
 40
1
  0
CIRCLE
  8
0-0
  6
DASHED1
 62
    7
 10
196.32432
 20
350.61003
 40
1
  0
CIRCLE
  8
0-0
  6
DASHED1
 62
    7
 10
147.72355
 20
340.94273
 40
1
  0
CIRCLE
  8
0-0
  6
DASHED1
 62
    7
 10
106.52176
 20
313.4126
 40
1
  0
CIRCLE
  8
0-0
  6
DASHED1
 62
    7
 10
78.991623
 20
272.21083
 40
1
  0
CIRCLE
  8
0-0
  6
DASHED1
 62
    7
 10
69.324322
 20
223.61003
 40
1
  0
CIRCLE
  8
0-0
  6
DASHED1
 62
    7
 10
78.991616
 20
175.00927
 40
1
  0
CIRCLE
  8
0-0
  6
DASHED1
 62
    7
 10
106.52175
 20
133.80749
 40
1
  0
CIRCLE
  8
0-0
  6
DASHED1
 62
    7
 10
147.72352
 20
106.27733
 40
1
  0
CIRCLE
  8
0-0
  6
DASHED1
 62
    7
 10
196.32432
 20
96.610046
 40
1
  0
CIRCLE
  8
0-0
  6
DASHED1
 62
    7
 10
244.9251
 20
106.27733
 40
1
  0
CIRCLE
  8
0-0
  6
DASHED1
 62
    7
 10
286.12687
 20
133.80748
 40
1
  0
CIRCLE
  8
0-0
  6
DASHED1
 62
    7
 10
313.65703
 20
175.00923
 40
1
  0
CIRCLE
  8
0-0
  6
DASHED1
 62
    7
 10
323.32433
 20
223.61003
 40
1
  0
CIRCLE
  8
0-0
  6
DASHED1
 62
    7
 10
313.65703
 20
272.21086
 40
1
  0
CIRCLE
  8
0-0
  6
DASHED1
 62
    7
 10
286.12687
 20
313.4126
 40
1
  0
CIRCLE
  8
0-2
  6
CONTINUOUS
 62
    7
 10
196.32432
 20
223.61003
 40
92.999998
  0
CIRCLE
  8
0-2
  6
CENTER1
 62
    7
 10
196.32432
 20
223.61003
 40
87.999999
  0
CIRCLE
  8
0-2
  6
CONTINUOUS
 62
    7
 10
277.62572
 20
257.28617
 40
1.5
  0
CIRCLE
  8
0-2
  6
CONTINUOUS
 62
    7
 10
230.00049
 20
304.91142
 40
1.5
  0
CIRCLE
  8
0-2
  6
CONTINUOUS
 62
    7
 10
162.6482
 20
304.91145
 40
1.5
  0
CIRCLE
  8
0-2
  6
CONTINUOUS
 62
    7
 10
115.02292
 20
257.28617
 40
1.5
  0
CIRCLE
  8
0-2
  6
CONTINUOUS
 62
    7
 10
115.02292
 20
189.9339
 40
1.5
  0
CIRCLE
  8
0-2
  6
CONTINUOUS
 62
    7
 10
162.64818
 20
142.30863
 40
1.5
  0
CIRCLE
  8
0-2
  6
CONTINUOUS
 62
    7
 10
230.00047
 20
142.30863
 40
1.5
  0
CIRCLE
  8
0-2
  6
CONTINUOUS
 62
    7
 10
277.62572
 20
189.93389
 40
1.5
  0
TEXT
  8
0-1
 10
288.17046
 20
246.9773
 40
4
 41
1
 50
281.24993
  1
22.5ﾟ
  0
TEXT
  8
0-1
 10
300.55586
 20
369.3895
 40
4
 41
1
 50
0
  1
8-φ3.4トウシ
  0
TEXT
  8
0-1
 10
300.55586
 20
359.38952
 40
4
 41
1
 50
0
  1
PCD162
  0
TEXT
  8
0-1
 10
462.30114
 20
270.53572
 40
4
 41
1
 50
90
  1
+0.1
  0
TEXT
  8
0-1
 10
467.30116
 20
270.53572
 40
4
 41
1
 50
90
  1
-0.0
  0
TEXT
  8
0-1
 10
300.55586
 20
364.38951
 40
4
 41
1
 50
0
  1
φ6座グリ深サ4
  0
TEXT
  8
0-1
 10
332.5404
 20
308.4471
 40
4
 41
1
 50
0
  1
16-φ3.4トウシ
  0
TEXT
  8
0-1
 10
332.5404
 20
303.44711
 40
4
 41
1
 50
0
  1
φ6座グリ深サ4
  0
TEXT
  8
0-1
 10
332.5404
 20
298.44712
 40
4
 41
1
 50
0
  1
PCD247
  0
TEXT
  8
0-1
 10
467.8822
 20
368.21726
 40
4
 41
1
 50
0
  1
PCD254
  0
TEXT
  8
0-2
 10
427.57915
 20
59.482626
 40
6
 41
1
 50
0
  1
SVD support ring用フランジ
  0
TEXT
  8
0-1
 10
467.8822
 20
373.21725
 40
4
 41
1
 50
0
  1
16-φ1.95深サ2
  0
TEXT
  8
0-2
 10
528.12392
 20
400.06696
 40
6
 41
1
 50
0
  1
縮尺1/2
  0
TEXT
  8
0-1
 10
408.93395
 20
280.61004
 40
5
 41
1
 50
90
  1
R129.00
  0
TEXT
  8
0-1
 10
434.07728
 20
260.11004
 40
4
 41
1
 50
90
  1
R77.00
  0
TEXT
  8
0-1
 10
465.15191
 20
258.87539
 40
4
 41
1
 50
90
  1
R83.5
  0
TEXT
  8
0-1
 10
458.52181
 20
86.640427
 40
5
 41
1
 50
0
  1
10.00
  0
TEXT
  8
0-1
 10
422.26249
 20
263.86004
 40
5
 41
1
 50
90
  1
R93.00±0.05
  0
TEXT
  8
0-1
 10
277.44038
 20
78.872344
 40
5
 41
1
 50
0
  1
8-M3トウシ
  0
TEXT
  8
0-1
 10
277.44038
 20
70.87234
 40
5
 41
1
 50
0
  1
45°等分
  0
TEXT
  8
0-1
 10
277.44038
 20
62.872344
 40
5
 41
1
 50
0
  1
PCD 176
  0
TEXT
  8
0-1
 10
499.75682
 20
235.17828
 40
6
 41
1
 50
0
  1
Ａ
  0
TEXT
  8
0-1
 10
350.9421
 20
234.69553
 40
6
 41
1
 50
0
  1
//  0.03  Ａ
  0
TEXT
  8
0-2
 10
427.57915
 20
29.482622
 40
6
 41
1
 50
0
  1
材質:Al  個数: 1
  0
TEXT
  8
0-2
 10
427.57915
 20
49.482628
 40
6
 41
1
 50
0
  1
98/06/15 Ｎ研　居波
  0
ENDSEC
  0
EOF
