  0
SECTION
  2
HEADER
  9
$EXTMIN
 10
0
 20
0
  9
$EXTMAX
 10
891
 20
630
  0
ENDSEC
  0
SECTION
  2
TABLES
  0
TABLE
  2
LTYPE
 70
     9
  0
LTYPE
  2
CONTINUOUS
 70
    64
  3
実線
 72
    65
 73
     0
 40
0.0
  0
LTYPE
  2
DASHED1
 70
    64
  3
--  --  --  --  --  --  --  --  
 72
    65
 73
     2
 40
2.5
 49
1.25
 49
-1.25
  0
LTYPE
  2
DASHED2
 70
    64
  3
----    ----    ----    ----    
 72
    65
 73
     2
 40
5.0
 49
2.5
 49
-2.5
  0
LTYPE
  2
DASHED3
 70
    64
  3
------  ------  ------  ------  
 72
    65
 73
     2
 40
5.0
 49
3.75
 49
-1.25
  0
LTYPE
  2
CENTER1
 70
    64
  3
----- - ----- - ----- - ----- - 
 72
    65
 73
     4
 40
10.0
 49
6.25
 49
-1.25
 49
1.25
 49
-1.25
  0
LTYPE
  2
CENTER2
 70
    64
  3
----------  --  ----------  --  
 72
    65
 73
     4
 40
20.0
 49
12.5
 49
-2.5
 49
2.5
 49
-2.5
  0
LTYPE
  2
PHANTOM1
 70
    64
  3
--- - - --- - - --- - - --- - - 
 72
    65
 73
     6
 40
10.0
 49
3.25
 49
-1.25
 49
1.25
 49
-1.25
 49
1.25
 49
-1.25
  0
LTYPE
  2
PHANTOM2
 70
    64
  3
--------  -  -  --------  -  -  
 72
    65
 73
     6
 40
20.0
 49
10.0
 49
-2.5
 49
1.25
 49
-2.5
 49
1.25
 49
-2.5
  0
LTYPE
  2
DOT
 70
    64
  3
-   -   -   -   -   -   -   -   
 72
    65
 73
     2
 40
2.5
 49
0.625
 49
-1.875
  0
ENDTAB
  0
TABLE
  2
STYLE
 70
    1
  0
STYLE
  2
STANDARD
 70
    64
 40
0.0
 41
1.0
 42
0.0
 50
0.0
 71
     0
  3
TXT
  4
BIGFONT
  0
ENDTAB
  0
TABLE
  2
LAYER
 70
   22
  0
LAYER
  2
17DEG_15
 70
   64
 62
    7
  6
CONTINUOUS
  0
LAYER
  2
OUTER_RI
 70
   64
 62
    7
  6
CONTINUOUS
  0
LAYER
  2
INNER_RI
 70
   64
 62
    7
  6
CONTINUOUS
  0
LAYER
  2
TAPER___
 70
   64
 62
    7
  6
CONTINUOUS
  0
LAYER
  2
MID_CYLI
 70
   64
 62
    7
  6
CONTINUOUS
  0
LAYER
  2
SHIELD_P
 70
   64
 62
    7
  6
CONTINUOUS
  0
LAYER
  2
BUL
 70
   64
 62
    7
  6
CONTINUOUS
  0
LAYER
  2
TF
 70
   64
 62
    7
  6
CONTINUOUS
  0
LAYER
  2
____
 70
   64
 62
    7
  6
CONTINUOUS
  0
LAYER
  2
CATHODE_
 70
   64
 62
    7
  6
CONTINUOUS
  0
LAYER
  2
DIMENSIO
 70
   64
 62
    7
  6
CONTINUOUS
  0
LAYER
  2
INNER_PA
 70
   64
 62
    7
  6
CONTINUOUS
  0
LAYER
  2
2-0
 70
   64
 62
    7
  6
CONTINUOUS
  0
LAYER
  2
2-1
 70
   64
 62
    7
  6
CONTINUOUS
  0
LAYER
  2
2-2
 70
   64
 62
    7
  6
CONTINUOUS
  0
LAYER
  2
2-3
 70
   64
 62
    7
  6
CONTINUOUS
  0
LAYER
  2
2-4
 70
   64
 62
    7
  6
CONTINUOUS
  0
LAYER
  2
2-5
 70
   64
 62
    7
  6
CONTINUOUS
  0
LAYER
  2
2-6
 70
   64
 62
    7
  6
CONTINUOUS
  0
LAYER
  2
2-7
 70
   64
 62
    7
  6
CONTINUOUS
  0
LAYER
  2
2-8
 70
   64
 62
    7
  6
CONTINUOUS
  0
LAYER
  2
ADD_LINE
 70
   64
 62
    7
  6
CONTINUOUS
  0
ENDTAB
  0
ENDSEC
  0
SECTION
  2
ENTITIES
  0
LINE
  8
INNER_PA
  6
CONTINUOUS
 62
    7
 10
278.88588
 20
347.96862
 11
304.23503
 21
347.96862
  0
LINE
  8
INNER_PA
  6
CONTINUOUS
 62
    7
 10
480.86101
 20
409.71863
 11
507.02793
 21
409.71863
  0
LINE
  8
MID_CYLI
  6
CONTINUOUS
 62
    7
 10
636.86196
 20
456.71851
 11
636.86196
 21
455.71853
  0
LINE
  8
MID_CYLI
  6
CONTINUOUS
 62
    7
 10
625.86193
 20
455.71853
 11
625.86193
 21
459.71868
  0
LINE
  8
MID_CYLI
  6
CONTINUOUS
 62
    7
 10
636.86196
 20
455.71853
 11
625.86193
 21
455.71853
  0
LINE
  8
MID_CYLI
  6
CONTINUOUS
 62
    7
 10
625.86193
 20
459.71868
 11
636.86196
 21
459.71868
  0
LINE
  8
INNER_PA
  6
CONTINUOUS
 62
    7
 10
630.36199
 20
455.71857
 11
630.36199
 21
451.71862
  0
LINE
  8
INNER_PA
  6
CONTINUOUS
 62
    7
 10
633.36196
 20
451.71862
 11
633.36196
 21
455.71857
  0
LINE
  8
INNER_PA
  6
CONTINUOUS
 62
    7
 10
637.86202
 20
455.71857
 11
625.86201
 21
455.71857
  0
LINE
  8
INNER_PA
  6
CONTINUOUS
 62
    7
 10
637.86202
 20
449.71867
 11
637.86202
 21
455.71857
  0
LINE
  8
INNER_PA
  6
CONTINUOUS
 62
    7
 10
614.21862
 20
455.71857
 11
614.21862
 21
459.71868
  0
LINE
  8
INNER_PA
  6
CONTINUOUS
 62
    7
 10
624.86204
 20
459.71868
 11
624.86204
 21
458.7185
  0
LINE
  8
INNER_PA
  6
CONTINUOUS
 62
    7
 10
624.86204
 20
458.7185
 11
625.86201
 21
458.7185
  0
LINE
  8
INNER_PA
  6
CONTINUOUS
 62
    7
 10
625.86201
 20
458.7185
 11
625.86201
 21
455.71857
  0
LINE
  8
INNER_PA
  6
CONTINUOUS
 62
    7
 10
614.21862
 20
459.71868
 11
624.86204
 21
459.71868
  0
LINE
  8
INNER_PA
  6
CONTINUOUS
 62
    7
 10
611.6951
 20
449.71867
 11
611.6951
 21
441.71865
  0
LINE
  8
INNER_PA
  6
CONTINUOUS
 62
    7
 10
637.86202
 20
449.71867
 11
611.6951
 21
449.71867
  0
LINE
  8
INNER_PA
  6
CONTINUOUS
 62
    7
 10
585.5283
 20
441.71865
 11
585.5283
 21
433.71856
  0
LINE
  8
INNER_PA
  6
CONTINUOUS
 62
    7
 10
611.6951
 20
441.71865
 11
585.5283
 21
441.71865
  0
LINE
  8
INNER_PA
  6
CONTINUOUS
 62
    7
 10
630.36199
 20
451.71862
 11
633.36196
 21
451.71862
  0
LINE
  8
INNER_PA
  6
PHANTOM2
 62
    3
 10
631.86192
 20
457.4489
 11
631.86192
 21
445.51523
  0
LINE
  8
INNER_PA
  6
CONTINUOUS
 62
    7
 10
585.5283
 20
433.71856
 11
559.36145
 21
433.71856
  0
LINE
  8
INNER_PA
  6
CONTINUOUS
 62
    7
 10
84.340576
 20
284.45851
 11
95.340564
 21
284.45851
  0
LINE
  8
INNER_PA
  6
CONTINUOUS
 62
    7
 10
100.34058
 20
291.2185
 11
114.5255
 21
291.2185
  0
LINE
  8
INNER_PA
  6
CONTINUOUS
 62
    7
 10
533.19473
 20
425.71854
 11
533.19473
 21
417.71864
  0
LINE
  8
INNER_PA
  6
CONTINUOUS
 62
    7
 10
507.02793
 20
417.71864
 11
507.02793
 21
409.71863
  0
LINE
  8
INNER_PA
  6
CONTINUOUS
 62
    7
 10
533.19473
 20
417.71864
 11
507.02793
 21
417.71864
  0
LINE
  8
INNER_PA
  6
CONTINUOUS
 62
    7
 10
404.81363
 20
386.46858
 11
429.34519
 21
386.46858
  0
LINE
  8
INNER_PA
  6
CONTINUOUS
 62
    7
 10
454.69417
 20
401.71857
 11
480.86101
 21
401.71857
  0
LINE
  8
INNER_PA
  6
CONTINUOUS
 62
    7
 10
454.69417
 20
401.71857
 11
454.69417
 21
393.96853
  0
LINE
  8
INNER_PA
  6
CONTINUOUS
 62
    7
 10
480.86101
 20
409.71863
 11
480.86101
 21
401.71857
  0
LINE
  8
INNER_PA
  6
CONTINUOUS
 62
    7
 10
429.34519
 20
393.96853
 11
454.69417
 21
393.96853
  0
LINE
  8
INNER_PA
  6
CONTINUOUS
 62
    7
 10
355.75083
 20
371.46864
 11
355.75083
 21
363.71864
  0
LINE
  8
INNER_PA
  6
CONTINUOUS
 62
    7
 10
380.28235
 20
378.96863
 11
380.28235
 21
371.46864
  0
LINE
  8
INNER_PA
  6
CONTINUOUS
 62
    7
 10
380.28235
 20
378.96863
 11
404.81363
 21
378.96863
  0
LINE
  8
INNER_PA
  6
CONTINUOUS
 62
    7
 10
404.81363
 20
386.46858
 11
404.81363
 21
378.96863
  0
LINE
  8
INNER_PA
  6
CONTINUOUS
 62
    7
 10
355.75083
 20
371.46864
 11
380.28235
 21
371.46864
  0
LINE
  8
INNER_PA
  6
CONTINUOUS
 62
    7
 10
429.34519
 20
393.96853
 11
429.34519
 21
386.46858
  0
LINE
  8
INNER_PA
  6
CONTINUOUS
 62
    7
 10
330.40169
 20
363.71864
 11
355.75083
 21
363.71864
  0
LINE
  8
INNER_PA
  6
CONTINUOUS
 62
    7
 10
304.23503
 20
355.71862
 11
330.40169
 21
355.71862
  0
LINE
  8
INNER_PA
  6
CONTINUOUS
 62
    7
 10
304.23503
 20
355.71862
 11
304.23503
 21
347.96862
  0
LINE
  8
INNER_PA
  6
CONTINUOUS
 62
    7
 10
278.88588
 20
347.96862
 11
278.88588
 21
339.46866
  0
LINE
  8
INNER_PA
  6
CONTINUOUS
 62
    7
 10
330.40169
 20
363.71864
 11
330.40169
 21
355.71862
  0
LINE
  8
CATHODE_
  6
CONTINUOUS
 62
    7
 10
87.240576
 20
270.9686
 11
95.240613
 21
270.9686
  0
LINE
  8
OUTER_RI
  6
CONTINUOUS
 62
    7
 10
95.240553
 20
270.96858
 11
95.240553
 21
266.9685
  0
LINE
  8
OUTER_RI
  6
CONTINUOUS
 62
    7
 10
80.240536
 20
268.7186
 11
80.240536
 21
269.21848
  0
LINE
  8
OUTER_RI
  6
CONTINUOUS
 62
    7
 10
80.240536
 20
269.21848
 11
70.24054
 21
269.21848
  0
LINE
  8
OUTER_RI
  6
CONTINUOUS
 62
    7
 10
80.240536
 20
268.7186
 11
70.24054
 21
268.7186
  0
LINE
  8
OUTER_RI
  6
CONTINUOUS
 62
    7
 10
70.24054
 20
270.96858
 11
95.240553
 21
270.96858
  0
LINE
  8
OUTER_RI
  6
CONTINUOUS
 62
    7
 10
70.24054
 20
268.7186
 11
70.24054
 21
266.9685
  0
LINE
  8
OUTER_RI
  6
CONTINUOUS
 62
    7
 10
70.24054
 20
270.96858
 11
70.24054
 21
269.21848
  0
LINE
  8
OUTER_RI
  6
CONTINUOUS
 62
    7
 10
95.240553
 20
266.9685
 11
70.24054
 21
266.9685
  0
LINE
  8
CATHODE_
  6
CONTINUOUS
 62
    7
 10
87.240576
 20
266.9685
 11
87.240576
 21
249.21864
  0
LINE
  8
CATHODE_
  6
CONTINUOUS
 62
    7
 10
87.240576
 20
282.95706
 11
87.240576
 21
270.9686
  0
LINE
  8
CATHODE_
  6
CONTINUOUS
 62
    7
 10
80.240586
 20
248.71857
 11
80.240586
 21
248.21851
  0
LINE
  8
CATHODE_
  6
CONTINUOUS
 62
    7
 10
71.240522
 20
248.21851
 11
80.240586
 21
248.21851
  0
LINE
  8
CATHODE_
  6
CONTINUOUS
 62
    7
 10
95.240613
 20
244.21858
 11
87.240576
 21
244.21858
  0
LINE
  8
CATHODE_
  6
CONTINUOUS
 62
    7
 10
95.240613
 20
249.21864
 11
95.240613
 21
244.21858
  0
LINE
  8
CATHODE_
  6
CONTINUOUS
 62
    7
 10
87.240576
 20
249.21864
 11
95.240613
 21
249.21864
  0
LINE
  8
CATHODE_
  6
CONTINUOUS
 62
    7
 10
87.240576
 20
244.21858
 11
87.240576
 21
242.71849
  0
LINE
  8
CATHODE_
  6
CONTINUOUS
 62
    7
 10
87.240576
 20
242.71849
 11
103.24057
 21
242.71849
  0
LINE
  8
CATHODE_
  6
CONTINUOUS
 62
    7
 10
103.24057
 20
242.71849
 11
103.24057
 21
282.11856
  0
LINE
  8
INNER_PA
  6
CONTINUOUS
 62
    7
 10
251.0836
 20
339.46866
 11
251.0836
 21
329.96853
  0
LINE
  8
INNER_RI
  6
CONTINUOUS
 62
    7
 10
30.240557
 20
244.21854
 11
30.240557
 21
248.21849
  0
LINE
  8
INNER_RI
  6
CONTINUOUS
 62
    7
 10
95.240553
 20
244.21854
 11
30.240557
 21
244.21854
  0
LINE
  8
INNER_RI
  6
CONTINUOUS
 62
    7
 10
30.240557
 20
248.21849
 11
80.240536
 21
248.21849
  0
LINE
  8
CATHODE_
  6
CONTINUOUS
 62
    7
 10
103.24057
 20
282.11856
 11
87.240576
 21
282.95706
  0
LINE
  8
INNER_PA
  6
CONTINUOUS
 62
    7
 10
84.340576
 20
293.71856
 11
84.340576
 21
284.45851
  0
LINE
  8
INNER_PA
  6
CONTINUOUS
 62
    7
 10
166.85914
 20
313.71859
 11
192.20828
 21
313.71859
  0
LINE
  8
BUL
  6
CONTINUOUS
 62
    7
 10
100.34058
 20
282.91856
 11
98.340616
 21
282.91856
  0
LINE
  8
INNER_PA
  6
CONTINUOUS
 62
    7
 10
114.5255
 20
297.71865
 11
114.5255
 21
291.2185
  0
LINE
  8
BUL
  6
CONTINUOUS
 62
    7
 10
100.34058
 20
291.2185
 11
100.34058
 21
282.91856
  0
LINE
  8
INNER_PA
  6
CONTINUOUS
 62
    7
 10
220.01046
 20
329.96853
 11
220.01046
 21
321.46859
  0
LINE
  8
BUL
  6
CONTINUOUS
 62
    7
 10
98.340616
 20
284.45851
 11
98.340616
 21
282.91856
  0
LINE
  8
BUL
  6
CONTINUOUS
 62
    7
 10
95.340564
 20
284.45851
 11
98.340616
 21
284.45851
  0
LINE
  8
INNER_PA
  6
CONTINUOUS
 62
    7
 10
220.01046
 20
329.96853
 11
251.0836
 21
329.96853
  0
LINE
  8
INNER_RI
  6
CONTINUOUS
 62
    7
 10
80.240536
 20
249.21864
 11
80.240536
 21
248.21849
  0
LINE
  8
INNER_RI
  6
CONTINUOUS
 62
    7
 10
95.240553
 20
249.21864
 11
80.240536
 21
249.21864
  0
LINE
  8
INNER_RI
  6
CONTINUOUS
 62
    7
 10
95.240553
 20
249.21864
 11
95.240553
 21
244.21854
  0
LINE
  8
CATHODE_
  6
CONTINUOUS
 62
    7
 10
80.240586
 20
269.2185
 11
80.240586
 21
268.7186
  0
LINE
  8
CATHODE_
  6
CONTINUOUS
 62
    7
 10
87.240576
 20
266.9685
 11
95.240613
 21
266.9685
  0
LINE
  8
CATHODE_
  6
CONTINUOUS
 62
    7
 10
95.240613
 20
270.9686
 11
95.240613
 21
266.9685
  0
LINE
  8
TF
  6
CONTINUOUS
 62
    7
 10
87.240576
 20
282.95706
 11
101.24061
 21
282.22336
  0
LINE
  8
TF
  6
CONTINUOUS
 62
    7
 10
84.340576
 20
284.45851
 11
98.340616
 21
284.45851
  0
LINE
  8
INNER_PA
  6
CONTINUOUS
 62
    7
 10
140.69221
 20
297.71865
 11
114.5255
 21
297.71865
  0
LINE
  8
INNER_PA
  6
CONTINUOUS
 62
    7
 10
166.85914
 20
313.71859
 11
166.85914
 21
305.71853
  0
LINE
  8
INNER_PA
  6
CONTINUOUS
 62
    7
 10
140.69221
 20
305.71853
 11
166.85914
 21
305.71853
  0
LINE
  8
INNER_PA
  6
CONTINUOUS
 62
    7
 10
140.69221
 20
305.71853
 11
140.69221
 21
297.71865
  0
LINE
  8
INNER_PA
  6
CONTINUOUS
 62
    7
 10
192.20828
 20
321.46859
 11
220.01046
 21
321.46859
  0
LINE
  8
INNER_PA
  6
CONTINUOUS
 62
    7
 10
192.20828
 20
321.46859
 11
192.20828
 21
313.71859
  0
LINE
  8
INNER_PA
  6
CONTINUOUS
 62
    7
 10
251.0836
 20
339.46866
 11
278.88588
 21
339.46866
  0
LINE
  8
INNER_PA
  6
CONTINUOUS
 62
    7
 10
559.36145
 20
433.71856
 11
559.36145
 21
425.71854
  0
LINE
  8
INNER_PA
  6
CONTINUOUS
 62
    7
 10
559.36145
 20
425.71854
 11
533.19473
 21
425.71854
  0
LINE
  8
DIMENSIO
  6
CONTINUOUS
 62
    5
 10
75.671534
 20
165.71852
 11
730.48855
 21
165.71852
  0
LINE
  8
INNER_PA
  6
CONTINUOUS
 62
    7
 10
84.340576
 20
293.71856
 11
614.21862
 21
455.71857
  0
LINE
  8
17DEG_15
  6
CONTINUOUS
 62
    5
 10
103.24052
 20
261.71854
 11
103.24052
 21
262.11852
  0
LINE
  8
17DEG_15
  6
CONTINUOUS
 62
    5
 10
103.24052
 20
265.31848
 11
103.24052
 21
265.71864
  0
LINE
  8
17DEG_15
  6
CONTINUOUS
 62
    5
 10
108.24055
 20
261.71854
 11
103.24052
 21
261.71854
  0
LINE
  8
17DEG_15
  6
CONTINUOUS
 62
    5
 10
103.24052
 20
265.71864
 11
108.24055
 21
265.71864
  0
LINE
  8
17DEG_15
  6
CONTINUOUS
 62
    5
 10
108.24055
 20
265.71864
 11
108.24055
 21
261.71854
  0
LINE
  8
17DEG_15
  6
CONTINUOUS
 62
    5
 10
107.84055
 20
264.51866
 11
107.84055
 21
262.91852
  0
LINE
  8
17DEG_15
  6
CONTINUOUS
 62
    5
 10
81.240518
 20
265.31848
 11
81.154012
 21
265.26861
  0
LINE
  8
17DEG_15
  6
CONTINUOUS
 62
    5
 10
81.240518
 20
265.31848
 11
103.24052
 21
265.31848
  0
LINE
  8
17DEG_15
  6
CONTINUOUS
 62
    5
 10
81.240518
 20
262.11852
 11
81.154012
 21
262.16857
  0
LINE
  8
17DEG_15
  6
CONTINUOUS
 62
    5
 10
103.24052
 20
262.11852
 11
81.240518
 21
262.11852
  0
LINE
  8
17DEG_15
  6
CONTINUOUS
 62
    5
 10
81.154012
 20
262.16857
 11
71.240522
 21
262.16857
  0
LINE
  8
17DEG_15
  6
CONTINUOUS
 62
    5
 10
71.240522
 20
265.26861
 11
81.154012
 21
265.26861
  0
LINE
  8
17DEG_15
  6
CONTINUOUS
 62
    5
 10
71.240522
 20
265.26861
 11
71.240522
 21
264.66755
  0
LINE
  8
17DEG_15
  6
CONTINUOUS
 62
    5
 10
71.240522
 20
262.77905
 11
71.240522
 21
262.16857
  0
LINE
  8
17DEG_15
  6
CONTINUOUS
 62
    5
 10
77.625878
 20
264.1332
 11
71.240522
 21
264.66755
  0
LINE
  8
17DEG_15
  6
CONTINUOUS
 62
    5
 10
77.625878
 20
263.3332
 11
71.240522
 21
262.77905
  0
LINE
  8
17DEG_15
  6
DASHED1
 62
    5
 10
108.24055
 20
261.71854
 11
105.2405
 21
261.71854
  0
LINE
  8
17DEG_15
  6
CONTINUOUS
 62
    5
 10
78.546548
 20
264.11868
 11
77.625878
 21
264.1332
  0
LINE
  8
17DEG_15
  6
CONTINUOUS
 62
    5
 10
78.546548
 20
263.3185
 11
77.625878
 21
263.3332
  0
LINE
  8
17DEG_15
  6
CONTINUOUS
 62
    5
 10
78.596574
 20
264.51866
 11
107.84055
 21
264.51866
  0
LINE
  8
17DEG_15
  6
CONTINUOUS
 62
    5
 10
78.546548
 20
264.11868
 11
78.546548
 21
264.46861
  0
LINE
  8
17DEG_15
  6
CONTINUOUS
 62
    5
 10
78.546548
 20
262.96857
 11
78.546548
 21
263.3185
  0
LINE
  8
17DEG_15
  6
CONTINUOUS
 62
    5
 10
107.84055
 20
262.91852
 11
78.596574
 21
262.91852
  0
LINE
  8
17DEG_15
  6
CONTINUOUS
 62
    7
 10
103.24052
 20
265.31848
 11
103.24052
 21
262.11852
  0
LINE
  8
17DEG_15
  6
CONTINUOUS
 62
    5
 10
103.24052
 20
251.71851
 11
103.24052
 21
252.11849
  0
LINE
  8
17DEG_15
  6
CONTINUOUS
 62
    5
 10
103.24052
 20
255.31845
 11
103.24052
 21
255.71861
  0
LINE
  8
17DEG_15
  6
CONTINUOUS
 62
    5
 10
108.24055
 20
251.71851
 11
103.24052
 21
251.71851
  0
LINE
  8
17DEG_15
  6
CONTINUOUS
 62
    5
 10
103.24052
 20
255.71861
 11
108.24055
 21
255.71861
  0
LINE
  8
17DEG_15
  6
CONTINUOUS
 62
    5
 10
108.24055
 20
255.71861
 11
108.24055
 21
251.71851
  0
LINE
  8
17DEG_15
  6
CONTINUOUS
 62
    5
 10
107.84055
 20
254.51863
 11
107.84055
 21
252.91849
  0
LINE
  8
17DEG_15
  6
CONTINUOUS
 62
    5
 10
81.240518
 20
255.31845
 11
81.154012
 21
255.26858
  0
LINE
  8
17DEG_15
  6
CONTINUOUS
 62
    5
 10
81.240518
 20
255.31845
 11
103.24052
 21
255.31845
  0
LINE
  8
17DEG_15
  6
CONTINUOUS
 62
    5
 10
81.240518
 20
252.11849
 11
81.154012
 21
252.16854
  0
LINE
  8
17DEG_15
  6
CONTINUOUS
 62
    5
 10
103.24052
 20
252.11849
 11
81.240518
 21
252.11849
  0
LINE
  8
17DEG_15
  6
CONTINUOUS
 62
    5
 10
81.154012
 20
252.16854
 11
71.240522
 21
252.16854
  0
LINE
  8
17DEG_15
  6
CONTINUOUS
 62
    5
 10
71.240522
 20
255.26858
 11
81.154012
 21
255.26858
  0
LINE
  8
17DEG_15
  6
CONTINUOUS
 62
    5
 10
71.240522
 20
255.26858
 11
71.240522
 21
254.66754
  0
LINE
  8
17DEG_15
  6
CONTINUOUS
 62
    5
 10
71.240522
 20
252.77904
 11
71.240522
 21
252.16854
  0
LINE
  8
17DEG_15
  6
CONTINUOUS
 62
    5
 10
77.625878
 20
254.13316
 11
71.240522
 21
254.66754
  0
LINE
  8
17DEG_15
  6
CONTINUOUS
 62
    5
 10
77.625878
 20
253.33317
 11
71.240522
 21
252.77904
  0
LINE
  8
17DEG_15
  6
DASHED1
 62
    5
 10
108.24055
 20
251.71851
 11
105.2405
 21
251.71851
  0
LINE
  8
17DEG_15
  6
CONTINUOUS
 62
    5
 10
78.546548
 20
254.11865
 11
77.625878
 21
254.13316
  0
LINE
  8
17DEG_15
  6
CONTINUOUS
 62
    5
 10
78.546548
 20
253.31847
 11
77.625878
 21
253.33317
  0
LINE
  8
17DEG_15
  6
CONTINUOUS
 62
    5
 10
78.596574
 20
254.51863
 11
107.84055
 21
254.51863
  0
LINE
  8
17DEG_15
  6
CONTINUOUS
 62
    5
 10
78.546548
 20
254.11865
 11
78.546548
 21
254.46858
  0
LINE
  8
17DEG_15
  6
CONTINUOUS
 62
    5
 10
78.546548
 20
252.96854
 11
78.546548
 21
253.31847
  0
LINE
  8
17DEG_15
  6
CONTINUOUS
 62
    5
 10
107.84055
 20
252.91849
 11
78.596574
 21
252.91849
  0
LINE
  8
17DEG_15
  6
CONTINUOUS
 62
    7
 10
103.24052
 20
255.31845
 11
103.24052
 21
252.11849
  0
LINE
  8
17DEG_15
  6
CONTINUOUS
 62
    5
 10
103.24052
 20
256.71861
 11
103.24052
 21
257.1186
  0
LINE
  8
17DEG_15
  6
CONTINUOUS
 62
    5
 10
103.24052
 20
260.31855
 11
103.24052
 21
260.71854
  0
LINE
  8
17DEG_15
  6
CONTINUOUS
 62
    5
 10
108.24055
 20
256.71861
 11
103.24052
 21
256.71861
  0
LINE
  8
17DEG_15
  6
CONTINUOUS
 62
    5
 10
103.24052
 20
260.71854
 11
108.24055
 21
260.71854
  0
LINE
  8
17DEG_15
  6
CONTINUOUS
 62
    5
 10
108.24055
 20
260.71854
 11
108.24055
 21
256.71861
  0
LINE
  8
17DEG_15
  6
CONTINUOUS
 62
    5
 10
107.84055
 20
259.51856
 11
107.84055
 21
257.91859
  0
LINE
  8
17DEG_15
  6
CONTINUOUS
 62
    5
 10
81.240518
 20
260.31855
 11
81.154012
 21
260.26868
  0
LINE
  8
17DEG_15
  6
CONTINUOUS
 62
    5
 10
81.240518
 20
260.31855
 11
103.24052
 21
260.31855
  0
LINE
  8
17DEG_15
  6
CONTINUOUS
 62
    5
 10
81.240518
 20
257.1186
 11
81.154012
 21
257.16847
  0
LINE
  8
17DEG_15
  6
CONTINUOUS
 62
    5
 10
103.24052
 20
257.1186
 11
81.240518
 21
257.1186
  0
LINE
  8
17DEG_15
  6
CONTINUOUS
 62
    5
 10
81.154012
 20
257.16847
 11
71.240522
 21
257.16847
  0
LINE
  8
17DEG_15
  6
CONTINUOUS
 62
    5
 10
71.240522
 20
260.26868
 11
81.154012
 21
260.26868
  0
LINE
  8
17DEG_15
  6
CONTINUOUS
 62
    5
 10
71.240522
 20
260.26868
 11
71.240522
 21
259.66745
  0
LINE
  8
17DEG_15
  6
CONTINUOUS
 62
    5
 10
71.240522
 20
257.77897
 11
71.240522
 21
257.16847
  0
LINE
  8
17DEG_15
  6
CONTINUOUS
 62
    5
 10
77.625878
 20
259.13327
 11
71.240522
 21
259.66745
  0
LINE
  8
17DEG_15
  6
CONTINUOUS
 62
    5
 10
77.625878
 20
258.3331
 11
71.240522
 21
257.77897
  0
LINE
  8
17DEG_15
  6
DASHED1
 62
    5
 10
108.24055
 20
256.71861
 11
105.2405
 21
256.71861
  0
LINE
  8
17DEG_15
  6
CONTINUOUS
 62
    5
 10
78.546548
 20
259.11857
 11
77.625878
 21
259.13327
  0
LINE
  8
17DEG_15
  6
CONTINUOUS
 62
    5
 10
78.546548
 20
258.31858
 11
77.625878
 21
258.3331
  0
LINE
  8
17DEG_15
  6
CONTINUOUS
 62
    5
 10
78.596574
 20
259.51856
 11
107.84055
 21
259.51856
  0
LINE
  8
17DEG_15
  6
CONTINUOUS
 62
    5
 10
78.546548
 20
259.11857
 11
78.546548
 21
259.46851
  0
LINE
  8
17DEG_15
  6
CONTINUOUS
 62
    5
 10
78.546548
 20
257.96864
 11
78.546548
 21
258.31858
  0
LINE
  8
17DEG_15
  6
CONTINUOUS
 62
    5
 10
107.84055
 20
257.91859
 11
78.596574
 21
257.91859
  0
LINE
  8
17DEG_15
  6
CONTINUOUS
 62
    7
 10
103.24052
 20
260.31855
 11
103.24052
 21
257.1186
  0
LINE
  8
17DEG_15
  6
CONTINUOUS
 62
    5
 10
103.24052
 20
272.21862
 11
103.24052
 21
272.61862
  0
LINE
  8
17DEG_15
  6
CONTINUOUS
 62
    5
 10
103.24052
 20
275.81856
 11
103.24052
 21
276.21856
  0
LINE
  8
17DEG_15
  6
CONTINUOUS
 62
    5
 10
108.24055
 20
272.21862
 11
103.24052
 21
272.21862
  0
LINE
  8
17DEG_15
  6
CONTINUOUS
 62
    5
 10
103.24052
 20
276.21856
 11
108.24055
 21
276.21856
  0
LINE
  8
17DEG_15
  6
CONTINUOUS
 62
    5
 10
108.24055
 20
276.21856
 11
108.24055
 21
272.21862
  0
LINE
  8
17DEG_15
  6
CONTINUOUS
 62
    5
 10
107.84055
 20
275.01858
 11
107.84055
 21
273.4186
  0
LINE
  8
17DEG_15
  6
CONTINUOUS
 62
    5
 10
81.240518
 20
275.81856
 11
81.154012
 21
275.76869
  0
LINE
  8
17DEG_15
  6
CONTINUOUS
 62
    5
 10
81.240518
 20
275.81856
 11
103.24052
 21
275.81856
  0
LINE
  8
17DEG_15
  6
CONTINUOUS
 62
    5
 10
81.240518
 20
272.61862
 11
81.154012
 21
272.66847
  0
LINE
  8
17DEG_15
  6
CONTINUOUS
 62
    5
 10
103.24052
 20
272.61862
 11
81.240518
 21
272.61862
  0
LINE
  8
17DEG_15
  6
CONTINUOUS
 62
    5
 10
81.154012
 20
272.66847
 11
71.240522
 21
272.66847
  0
LINE
  8
17DEG_15
  6
CONTINUOUS
 62
    5
 10
71.240522
 20
275.76869
 11
81.154012
 21
275.76869
  0
LINE
  8
17DEG_15
  6
CONTINUOUS
 62
    5
 10
71.240522
 20
275.76869
 11
71.240522
 21
275.16747
  0
LINE
  8
17DEG_15
  6
CONTINUOUS
 62
    5
 10
71.240522
 20
273.27897
 11
71.240522
 21
272.66847
  0
LINE
  8
17DEG_15
  6
CONTINUOUS
 62
    5
 10
77.625878
 20
274.63328
 11
71.240522
 21
275.16747
  0
LINE
  8
17DEG_15
  6
CONTINUOUS
 62
    5
 10
77.625878
 20
273.8331
 11
71.240522
 21
273.27897
  0
LINE
  8
17DEG_15
  6
DASHED1
 62
    5
 10
108.24055
 20
272.21862
 11
105.2405
 21
272.21862
  0
LINE
  8
17DEG_15
  6
CONTINUOUS
 62
    5
 10
78.546548
 20
274.61858
 11
77.625878
 21
274.63328
  0
LINE
  8
17DEG_15
  6
CONTINUOUS
 62
    5
 10
78.546548
 20
273.8186
 11
77.625878
 21
273.8331
  0
LINE
  8
17DEG_15
  6
CONTINUOUS
 62
    5
 10
78.596574
 20
275.01858
 11
107.84055
 21
275.01858
  0
LINE
  8
17DEG_15
  6
CONTINUOUS
 62
    5
 10
78.546548
 20
274.61858
 11
78.546548
 21
274.96853
  0
LINE
  8
17DEG_15
  6
CONTINUOUS
 62
    5
 10
78.546548
 20
273.46865
 11
78.546548
 21
273.8186
  0
LINE
  8
17DEG_15
  6
CONTINUOUS
 62
    5
 10
107.84055
 20
273.4186
 11
78.596574
 21
273.4186
  0
LINE
  8
17DEG_15
  6
CONTINUOUS
 62
    7
 10
103.24052
 20
275.81856
 11
103.24052
 21
272.61862
  0
LINE
  8
17DEG_15
  6
CONTINUOUS
 62
    5
 10
103.24052
 20
277.21854
 11
103.24052
 21
277.61853
  0
LINE
  8
17DEG_15
  6
CONTINUOUS
 62
    5
 10
103.24052
 20
280.81848
 11
103.24052
 21
281.21865
  0
LINE
  8
17DEG_15
  6
CONTINUOUS
 62
    5
 10
108.24055
 20
277.21854
 11
103.24052
 21
277.21854
  0
LINE
  8
17DEG_15
  6
CONTINUOUS
 62
    5
 10
103.24052
 20
281.21865
 11
108.24055
 21
281.21865
  0
LINE
  8
17DEG_15
  6
CONTINUOUS
 62
    5
 10
108.24055
 20
281.21865
 11
108.24055
 21
277.21854
  0
LINE
  8
17DEG_15
  6
CONTINUOUS
 62
    5
 10
107.84055
 20
280.01867
 11
107.84055
 21
278.41852
  0
LINE
  8
17DEG_15
  6
CONTINUOUS
 62
    5
 10
81.240518
 20
280.81848
 11
81.154012
 21
280.76861
  0
LINE
  8
17DEG_15
  6
CONTINUOUS
 62
    5
 10
81.240518
 20
280.81848
 11
103.24052
 21
280.81848
  0
LINE
  8
17DEG_15
  6
CONTINUOUS
 62
    5
 10
81.240518
 20
277.61853
 11
81.154012
 21
277.66858
  0
LINE
  8
17DEG_15
  6
CONTINUOUS
 62
    5
 10
103.24052
 20
277.61853
 11
81.240518
 21
277.61853
  0
LINE
  8
17DEG_15
  6
CONTINUOUS
 62
    5
 10
81.154012
 20
277.66858
 11
71.240522
 21
277.66858
  0
LINE
  8
17DEG_15
  6
CONTINUOUS
 62
    5
 10
71.240522
 20
280.76861
 11
81.154012
 21
280.76861
  0
LINE
  8
17DEG_15
  6
CONTINUOUS
 62
    5
 10
71.240522
 20
280.76861
 11
71.240522
 21
280.16758
  0
LINE
  8
17DEG_15
  6
CONTINUOUS
 62
    5
 10
71.240522
 20
278.27908
 11
71.240522
 21
277.66858
  0
LINE
  8
17DEG_15
  6
CONTINUOUS
 62
    5
 10
77.625878
 20
279.6332
 11
71.240522
 21
280.16758
  0
LINE
  8
17DEG_15
  6
CONTINUOUS
 62
    5
 10
77.625878
 20
278.83321
 11
71.240522
 21
278.27908
  0
LINE
  8
17DEG_15
  6
DASHED1
 62
    5
 10
108.24055
 20
277.21854
 11
105.2405
 21
277.21854
  0
LINE
  8
17DEG_15
  6
CONTINUOUS
 62
    5
 10
78.546548
 20
279.61868
 11
77.625878
 21
279.6332
  0
LINE
  8
17DEG_15
  6
CONTINUOUS
 62
    5
 10
78.546548
 20
278.81851
 11
77.625878
 21
278.83321
  0
LINE
  8
17DEG_15
  6
CONTINUOUS
 62
    5
 10
78.596574
 20
280.01867
 11
107.84055
 21
280.01867
  0
LINE
  8
17DEG_15
  6
CONTINUOUS
 62
    5
 10
78.546548
 20
279.61868
 11
78.546548
 21
279.96862
  0
LINE
  8
17DEG_15
  6
CONTINUOUS
 62
    5
 10
78.546548
 20
278.46857
 11
78.546548
 21
278.81851
  0
LINE
  8
17DEG_15
  6
CONTINUOUS
 62
    5
 10
107.84055
 20
278.41852
 11
78.596574
 21
278.41852
  0
LINE
  8
17DEG_15
  6
CONTINUOUS
 62
    7
 10
103.24052
 20
280.81848
 11
103.24052
 21
277.61853
  0
LINE
  8
17DEG_15
  6
CONTINUOUS
 62
    7
 10
140.69221
 20
299.71863
 11
140.69221
 21
303.71855
  0
LINE
  8
17DEG_15
  6
CONTINUOUS
 62
    7
 10
96.605685
 20
300.16848
 11
83.692245
 21
300.16848
  0
LINE
  8
17DEG_15
  6
CONTINUOUS
 62
    7
 10
83.692245
 20
303.2687
 11
96.605685
 21
303.2687
  0
LINE
  8
17DEG_15
  6
CONTINUOUS
 62
    7
 10
96.692192
 20
303.31857
 11
96.605685
 21
303.2687
  0
LINE
  8
17DEG_15
  6
CONTINUOUS
 62
    7
 10
96.692192
 20
303.31857
 11
140.69221
 21
303.31857
  0
LINE
  8
17DEG_15
  6
CONTINUOUS
 62
    7
 10
96.692192
 20
300.11861
 11
96.605685
 21
300.16848
  0
LINE
  8
17DEG_15
  6
CONTINUOUS
 62
    7
 10
140.69221
 20
300.11861
 11
96.692192
 21
300.11861
  0
LINE
  8
17DEG_15
  6
CONTINUOUS
 62
    7
 10
145.69218
 20
299.71863
 11
140.69221
 21
299.71863
  0
LINE
  8
17DEG_15
  6
CONTINUOUS
 62
    7
 10
87.692178
 20
301.33311
 11
83.692245
 21
300.5186
  0
LINE
  8
17DEG_15
  6
CONTINUOUS
 62
    7
 10
87.692178
 20
302.11859
 11
83.692245
 21
302.91856
  0
LINE
  8
17DEG_15
  6
CONTINUOUS
 62
    7
 10
88.692265
 20
301.33311
 11
87.692178
 21
301.33311
  0
LINE
  8
17DEG_15
  6
CONTINUOUS
 62
    7
 10
88.692265
 20
302.11859
 11
87.692178
 21
302.11859
  0
LINE
  8
17DEG_15
  6
CONTINUOUS
 62
    7
 10
88.742296
 20
302.51857
 11
145.2923
 21
302.51857
  0
LINE
  8
17DEG_15
  6
CONTINUOUS
 62
    7
 10
88.692265
 20
302.11859
 11
88.692265
 21
302.46852
  0
LINE
  8
17DEG_15
  6
CONTINUOUS
 62
    7
 10
145.2923
 20
300.91861
 11
88.742296
 21
300.91861
  0
LINE
  8
17DEG_15
  6
CONTINUOUS
 62
    7
 10
88.692265
 20
300.96864
 11
88.692265
 21
301.33311
  0
LINE
  8
17DEG_15
  6
CONTINUOUS
 62
    7
 10
145.69218
 20
303.71855
 11
145.69218
 21
299.71863
  0
LINE
  8
17DEG_15
  6
CONTINUOUS
 62
    7
 10
145.2923
 20
302.51857
 11
145.2923
 21
300.91861
  0
LINE
  8
17DEG_15
  6
CONTINUOUS
 62
    7
 10
140.69221
 20
303.71855
 11
145.69218
 21
303.71855
  0
LINE
  8
17DEG_15
  6
CONTINUOUS
 62
    7
 10
83.692245
 20
303.2687
 11
83.692245
 21
302.91856
  0
LINE
  8
17DEG_15
  6
CONTINUOUS
 62
    7
 10
83.692245
 20
300.5186
 11
83.692245
 21
300.16848
  0
LINE
  8
17DEG_15
  6
CONTINUOUS
 62
    7
 10
90.340539
 20
289.21853
 11
90.340539
 21
286.21858
  0
LINE
  8
17DEG_15
  6
CONTINUOUS
 62
    7
 10
100.34053
 20
289.21853
 11
90.340539
 21
289.21853
  0
LINE
  8
17DEG_15
  6
CONTINUOUS
 62
    7
 10
90.340539
 20
286.21858
 11
100.34053
 21
286.21858
  0
LINE
  8
17DEG_15
  6
CONTINUOUS
 62
    5
 10
136.5255
 20
294.21861
 11
119.52541
 21
294.21861
  0
LINE
  8
17DEG_15
  6
CONTINUOUS
 62
    5
 10
119.52541
 20
293.21861
 11
136.5255
 21
293.21861
  0
LINE
  8
17DEG_15
  6
CONTINUOUS
 62
    5
 10
119.52541
 20
295.7185
 11
119.52541
 21
291.71857
  0
LINE
  8
17DEG_15
  6
CONTINUOUS
 62
    5
 10
136.5255
 20
294.21861
 11
136.5255
 21
293.21861
  0
LINE
  8
17DEG_15
  6
CONTINUOUS
 62
    7
 10
192.20822
 20
315.59359
 11
192.20822
 21
319.59352
  0
LINE
  8
17DEG_15
  6
CONTINUOUS
 62
    7
 10
148.12164
 20
316.04345
 11
135.20821
 21
316.04345
  0
LINE
  8
17DEG_15
  6
CONTINUOUS
 62
    7
 10
135.20821
 20
319.14366
 11
148.12164
 21
319.14366
  0
LINE
  8
17DEG_15
  6
CONTINUOUS
 62
    7
 10
148.20815
 20
319.19353
 11
148.12164
 21
319.14366
  0
LINE
  8
17DEG_15
  6
CONTINUOUS
 62
    7
 10
148.20815
 20
319.19353
 11
192.20822
 21
319.19353
  0
LINE
  8
17DEG_15
  6
CONTINUOUS
 62
    7
 10
148.20815
 20
315.99358
 11
148.12164
 21
316.04345
  0
LINE
  8
17DEG_15
  6
CONTINUOUS
 62
    7
 10
192.20822
 20
315.99358
 11
148.20815
 21
315.99358
  0
LINE
  8
17DEG_15
  6
CONTINUOUS
 62
    7
 10
197.20815
 20
315.59359
 11
192.20822
 21
315.59359
  0
LINE
  8
17DEG_15
  6
CONTINUOUS
 62
    7
 10
139.20825
 20
317.20826
 11
135.20821
 21
316.39359
  0
LINE
  8
17DEG_15
  6
CONTINUOUS
 62
    7
 10
139.20825
 20
317.99355
 11
135.20821
 21
318.79355
  0
LINE
  8
17DEG_15
  6
CONTINUOUS
 62
    7
 10
140.20823
 20
317.20826
 11
139.20825
 21
317.20826
  0
LINE
  8
17DEG_15
  6
CONTINUOUS
 62
    7
 10
140.20823
 20
317.99355
 11
139.20825
 21
317.99355
  0
LINE
  8
17DEG_15
  6
CONTINUOUS
 62
    7
 10
140.25815
 20
318.39354
 11
196.80816
 21
318.39354
  0
LINE
  8
17DEG_15
  6
CONTINUOUS
 62
    7
 10
140.20823
 20
317.99355
 11
140.20823
 21
318.34351
  0
LINE
  8
17DEG_15
  6
CONTINUOUS
 62
    7
 10
196.80816
 20
316.79357
 11
140.25815
 21
316.79357
  0
LINE
  8
17DEG_15
  6
CONTINUOUS
 62
    7
 10
140.20823
 20
316.84362
 11
140.20823
 21
317.20826
  0
LINE
  8
17DEG_15
  6
CONTINUOUS
 62
    7
 10
197.20815
 20
319.59352
 11
197.20815
 21
315.59359
  0
LINE
  8
17DEG_15
  6
CONTINUOUS
 62
    7
 10
196.80816
 20
318.39354
 11
196.80816
 21
316.79357
  0
LINE
  8
17DEG_15
  6
CONTINUOUS
 62
    7
 10
192.20822
 20
319.59352
 11
197.20815
 21
319.59352
  0
LINE
  8
17DEG_15
  6
CONTINUOUS
 62
    7
 10
135.20821
 20
319.14366
 11
135.20821
 21
318.79355
  0
LINE
  8
17DEG_15
  6
CONTINUOUS
 62
    7
 10
135.20821
 20
316.39359
 11
135.20821
 21
316.04345
  0
LINE
  8
17DEG_15
  6
CONTINUOUS
 62
    5
 10
166.85903
 20
307.7185
 11
166.85903
 21
308.11865
  0
LINE
  8
17DEG_15
  6
CONTINUOUS
 62
    5
 10
166.85903
 20
311.31858
 11
166.85903
 21
311.71859
  0
LINE
  8
17DEG_15
  6
CONTINUOUS
 62
    5
 10
171.85907
 20
307.7185
 11
166.85903
 21
307.7185
  0
LINE
  8
17DEG_15
  6
CONTINUOUS
 62
    5
 10
166.85903
 20
311.71859
 11
171.85907
 21
311.71859
  0
LINE
  8
17DEG_15
  6
CONTINUOUS
 62
    5
 10
171.85907
 20
311.71859
 11
171.85907
 21
307.7185
  0
LINE
  8
17DEG_15
  6
CONTINUOUS
 62
    5
 10
171.45906
 20
310.51861
 11
171.45906
 21
308.91848
  0
LINE
  8
17DEG_15
  6
CONTINUOUS
 62
    5
 10
144.85907
 20
311.31858
 11
144.77252
 21
311.26857
  0
LINE
  8
17DEG_15
  6
CONTINUOUS
 62
    5
 10
144.85907
 20
311.31858
 11
166.85903
 21
311.31858
  0
LINE
  8
17DEG_15
  6
CONTINUOUS
 62
    5
 10
144.85907
 20
308.11865
 11
144.77252
 21
308.16852
  0
LINE
  8
17DEG_15
  6
CONTINUOUS
 62
    5
 10
166.85903
 20
308.11865
 11
144.85907
 21
308.11865
  0
LINE
  8
17DEG_15
  6
CONTINUOUS
 62
    5
 10
144.77252
 20
308.16852
 11
134.85902
 21
308.16852
  0
LINE
  8
17DEG_15
  6
CONTINUOUS
 62
    5
 10
134.85902
 20
311.26857
 11
144.77252
 21
311.26857
  0
LINE
  8
17DEG_15
  6
CONTINUOUS
 62
    5
 10
134.85902
 20
311.26857
 11
134.85902
 21
310.66752
  0
LINE
  8
17DEG_15
  6
CONTINUOUS
 62
    5
 10
134.85902
 20
308.779
 11
134.85902
 21
308.16852
  0
LINE
  8
17DEG_15
  6
CONTINUOUS
 62
    5
 10
141.24448
 20
310.1333
 11
134.85902
 21
310.66752
  0
LINE
  8
17DEG_15
  6
CONTINUOUS
 62
    5
 10
141.24448
 20
309.33317
 11
134.85902
 21
308.779
  0
LINE
  8
17DEG_15
  6
DASHED1
 62
    5
 10
171.85907
 20
307.7185
 11
168.85911
 21
307.7185
  0
LINE
  8
17DEG_15
  6
CONTINUOUS
 62
    5
 10
142.16515
 20
310.1186
 11
141.24448
 21
310.1333
  0
LINE
  8
17DEG_15
  6
CONTINUOUS
 62
    5
 10
142.16515
 20
309.31847
 11
141.24448
 21
309.33317
  0
LINE
  8
17DEG_15
  6
CONTINUOUS
 62
    5
 10
142.21518
 20
310.51861
 11
171.45906
 21
310.51861
  0
LINE
  8
17DEG_15
  6
CONTINUOUS
 62
    5
 10
142.16515
 20
310.1186
 11
142.16515
 21
310.46858
  0
LINE
  8
17DEG_15
  6
CONTINUOUS
 62
    5
 10
142.16515
 20
308.96849
 11
142.16515
 21
309.31847
  0
LINE
  8
17DEG_15
  6
CONTINUOUS
 62
    5
 10
171.45906
 20
308.91848
 11
142.21518
 21
308.91848
  0
LINE
  8
17DEG_15
  6
CONTINUOUS
 62
    7
 10
166.85903
 20
311.31858
 11
166.85903
 21
308.11865
  0
LINE
  8
17DEG_15
  6
CONTINUOUS
 62
    5
 10
114.52544
 20
291.71857
 11
114.52544
 21
292.11856
  0
LINE
  8
17DEG_15
  6
CONTINUOUS
 62
    5
 10
114.52544
 20
295.31851
 11
114.52544
 21
295.7185
  0
LINE
  8
17DEG_15
  6
CONTINUOUS
 62
    5
 10
119.52541
 20
291.71857
 11
114.52544
 21
291.71857
  0
LINE
  8
17DEG_15
  6
CONTINUOUS
 62
    5
 10
114.52544
 20
295.7185
 11
119.52541
 21
295.7185
  0
LINE
  8
17DEG_15
  6
CONTINUOUS
 62
    5
 10
119.12542
 20
294.5187
 11
119.12542
 21
292.91855
  0
LINE
  8
17DEG_15
  6
CONTINUOUS
 62
    5
 10
92.525437
 20
295.31851
 11
92.43882
 21
295.26864
  0
LINE
  8
17DEG_15
  6
CONTINUOUS
 62
    5
 10
92.525437
 20
295.31851
 11
114.52544
 21
295.31851
  0
LINE
  8
17DEG_15
  6
CONTINUOUS
 62
    5
 10
92.525437
 20
292.11856
 11
92.43882
 21
292.16861
  0
LINE
  8
17DEG_15
  6
CONTINUOUS
 62
    5
 10
114.52544
 20
292.11856
 11
92.525437
 21
292.11856
  0
LINE
  8
17DEG_15
  6
CONTINUOUS
 62
    5
 10
92.43882
 20
292.16861
 11
82.525491
 21
292.16861
  0
LINE
  8
17DEG_15
  6
CONTINUOUS
 62
    5
 10
82.525491
 20
295.26864
 11
92.43882
 21
295.26864
  0
LINE
  8
17DEG_15
  6
CONTINUOUS
 62
    5
 10
82.525491
 20
295.26864
 11
82.525491
 21
294.66761
  0
LINE
  8
17DEG_15
  6
CONTINUOUS
 62
    5
 10
82.525491
 20
292.77892
 11
82.525491
 21
292.16861
  0
LINE
  8
17DEG_15
  6
CONTINUOUS
 62
    5
 10
88.910897
 20
294.13323
 11
82.525491
 21
294.66761
  0
LINE
  8
17DEG_15
  6
CONTINUOUS
 62
    5
 10
88.910897
 20
293.33323
 11
82.525491
 21
292.77892
  0
LINE
  8
17DEG_15
  6
DASHED1
 62
    5
 10
119.52541
 20
291.71857
 11
116.52546
 21
291.71857
  0
LINE
  8
17DEG_15
  6
CONTINUOUS
 62
    5
 10
89.831517
 20
294.11853
 11
88.910897
 21
294.13323
  0
LINE
  8
17DEG_15
  6
CONTINUOUS
 62
    5
 10
89.831517
 20
293.31854
 11
88.910897
 21
293.33323
  0
LINE
  8
17DEG_15
  6
CONTINUOUS
 62
    5
 10
89.881538
 20
294.5187
 11
119.12542
 21
294.5187
  0
LINE
  8
17DEG_15
  6
CONTINUOUS
 62
    5
 10
89.831517
 20
294.11853
 11
89.831517
 21
294.46847
  0
LINE
  8
17DEG_15
  6
CONTINUOUS
 62
    5
 10
89.831517
 20
292.9686
 11
89.831517
 21
293.31854
  0
LINE
  8
17DEG_15
  6
CONTINUOUS
 62
    5
 10
119.12542
 20
292.91855
 11
89.881538
 21
292.91855
  0
LINE
  8
17DEG_15
  6
CONTINUOUS
 62
    7
 10
114.52544
 20
295.31851
 11
114.52544
 21
292.11856
  0
LINE
  8
17DEG_15
  6
CONTINUOUS
 62
    7
 10
637.86194
 20
451.71858
 11
637.86194
 21
455.71853
  0
LINE
  8
17DEG_15
  6
CONTINUOUS
 62
    7
 10
593.7752
 20
452.16844
 11
580.8618
 21
452.16844
  0
LINE
  8
17DEG_15
  6
CONTINUOUS
 62
    7
 10
580.8618
 20
455.26867
 11
593.7752
 21
455.26867
  0
LINE
  8
17DEG_15
  6
CONTINUOUS
 62
    7
 10
593.86191
 20
455.31873
 11
593.7752
 21
455.26867
  0
LINE
  8
17DEG_15
  6
CONTINUOUS
 62
    7
 10
593.86191
 20
455.31873
 11
637.86194
 21
455.31873
  0
LINE
  8
17DEG_15
  6
CONTINUOUS
 62
    7
 10
593.86191
 20
452.11843
 11
593.7752
 21
452.16844
  0
LINE
  8
17DEG_15
  6
CONTINUOUS
 62
    7
 10
637.86194
 20
452.11843
 11
593.86191
 21
452.11843
  0
LINE
  8
17DEG_15
  6
CONTINUOUS
 62
    7
 10
642.86186
 20
451.71858
 11
637.86194
 21
451.71858
  0
LINE
  8
17DEG_15
  6
CONTINUOUS
 62
    7
 10
584.86195
 20
453.33325
 11
580.8618
 21
452.51856
  0
LINE
  8
17DEG_15
  6
CONTINUOUS
 62
    7
 10
584.86195
 20
454.11838
 11
580.8618
 21
454.91852
  0
LINE
  8
17DEG_15
  6
CONTINUOUS
 62
    7
 10
585.86193
 20
453.33325
 11
584.86195
 21
453.33325
  0
LINE
  8
17DEG_15
  6
CONTINUOUS
 62
    7
 10
585.86193
 20
454.11838
 11
584.86195
 21
454.11838
  0
LINE
  8
17DEG_15
  6
CONTINUOUS
 62
    7
 10
585.9119
 20
454.51855
 11
642.46186
 21
454.51855
  0
LINE
  8
17DEG_15
  6
CONTINUOUS
 62
    7
 10
585.86193
 20
454.11838
 11
585.86193
 21
454.4685
  0
LINE
  8
17DEG_15
  6
CONTINUOUS
 62
    7
 10
642.46186
 20
452.91856
 11
585.9119
 21
452.91856
  0
LINE
  8
17DEG_15
  6
CONTINUOUS
 62
    7
 10
585.86193
 20
452.96866
 11
585.86193
 21
453.33325
  0
LINE
  8
17DEG_15
  6
CONTINUOUS
 62
    7
 10
642.86186
 20
455.71853
 11
642.86186
 21
451.71858
  0
LINE
  8
17DEG_15
  6
CONTINUOUS
 62
    7
 10
642.46186
 20
454.51855
 11
642.46186
 21
452.91856
  0
LINE
  8
17DEG_15
  6
CONTINUOUS
 62
    7
 10
637.86194
 20
455.71853
 11
642.86186
 21
455.71853
  0
LINE
  8
17DEG_15
  6
CONTINUOUS
 62
    7
 10
580.8618
 20
455.26867
 11
580.8618
 21
454.91852
  0
LINE
  8
17DEG_15
  6
CONTINUOUS
 62
    7
 10
580.8618
 20
452.51856
 11
580.8618
 21
452.16844
  0
LINE
  8
ADD_LINE
  6
DOT
 62
    7
 10
103.24057
 20
242.71849
 11
103.24057
 21
159.03981
  0
LINE
  8
ADD_LINE
  6
DOT
 62
    7
 10
153.57058
 20
242.71849
 11
153.57058
 21
159.03981
  0
LINE
  8
2-1
  6
CONTINUOUS
 62
    7
 10
103.24057
 20
251.21852
 11
108.24058
 21
251.21852
  0
LINE
  8
2-1
  6
CONTINUOUS
 62
    7
 10
108.24058
 20
245.7185
 11
108.24058
 21
251.1497
  0
LINE
  8
2-1
  6
CONTINUOUS
 62
    7
 10
108.24058
 20
245.7185
 11
147.57059
 21
245.7185
  0
LINE
  8
2-1
  6
CONTINUOUS
 62
    7
 10
147.57059
 20
245.7185
 11
147.57059
 21
249.21852
  0
LINE
  8
2-1
  6
CONTINUOUS
 62
    7
 10
147.57059
 20
249.21852
 11
153.57058
 21
249.21852
  0
LINE
  8
2-1
  6
CONTINUOUS
 62
    7
 10
153.57058
 20
242.71851
 11
153.57058
 21
249.21852
  0
LINE
  8
2-2
  6
CENTER1
 62
    5
 10
110.3599
 20
321.46851
 11
337.82876
 21
321.46851
  0
LINE
  8
MID_CYLI
  6
CONTINUOUS
 62
    7
 10
687.86195
 20
456.71851
 11
636.86196
 21
456.71851
  0
LINE
  8
2-3
  6
CONTINUOUS
 62
    7
 10
687.86195
 20
456.71851
 11
687.86195
 21
455.71853
  0
LINE
  8
2-2
  6
CENTER1
 62
    5
 10
697.86204
 20
462.18562
 11
697.86204
 21
447.15801
  0
LINE
  8
2-2
  6
CENTER1
 62
    5
 10
727.862
 20
462.18562
 11
727.862
 21
447.15801
  0
LINE
  8
17DEG_15
  6
CONTINUOUS
 62
    5
 10
188.85916
 20
310.21853
 11
171.85907
 21
310.21853
  0
LINE
  8
17DEG_15
  6
CONTINUOUS
 62
    5
 10
171.85907
 20
309.21855
 11
188.85916
 21
309.21855
  0
LINE
  8
17DEG_15
  6
CONTINUOUS
 62
    5
 10
188.85916
 20
310.21853
 11
188.85916
 21
309.21855
  0
LINE
  8
17DEG_15
  6
CONTINUOUS
 62
    5
 10
220.01036
 20
323.46856
 11
220.01036
 21
323.86871
  0
LINE
  8
17DEG_15
  6
CONTINUOUS
 62
    5
 10
220.01036
 20
327.06864
 11
220.01036
 21
327.46865
  0
LINE
  8
17DEG_15
  6
CONTINUOUS
 62
    5
 10
225.01039
 20
323.46856
 11
220.01036
 21
323.46856
  0
LINE
  8
17DEG_15
  6
CONTINUOUS
 62
    5
 10
220.01036
 20
327.46865
 11
225.01039
 21
327.46865
  0
LINE
  8
17DEG_15
  6
CONTINUOUS
 62
    5
 10
225.01039
 20
327.46865
 11
225.01039
 21
323.46856
  0
LINE
  8
17DEG_15
  6
CONTINUOUS
 62
    5
 10
224.61038
 20
326.26867
 11
224.61038
 21
324.66854
  0
LINE
  8
17DEG_15
  6
CONTINUOUS
 62
    5
 10
198.01039
 20
327.06864
 11
197.92384
 21
327.01863
  0
LINE
  8
17DEG_15
  6
CONTINUOUS
 62
    5
 10
198.01039
 20
327.06864
 11
220.01036
 21
327.06864
  0
LINE
  8
17DEG_15
  6
CONTINUOUS
 62
    5
 10
198.01039
 20
323.86871
 11
197.92384
 21
323.91858
  0
LINE
  8
17DEG_15
  6
CONTINUOUS
 62
    5
 10
220.01036
 20
323.86871
 11
198.01039
 21
323.86871
  0
LINE
  8
17DEG_15
  6
CONTINUOUS
 62
    5
 10
197.92384
 20
323.91858
 11
188.01036
 21
323.91858
  0
LINE
  8
17DEG_15
  6
CONTINUOUS
 62
    5
 10
188.01036
 20
327.01863
 11
197.92384
 21
327.01863
  0
LINE
  8
17DEG_15
  6
CONTINUOUS
 62
    5
 10
188.01036
 20
327.01863
 11
188.01036
 21
326.41758
  0
LINE
  8
17DEG_15
  6
CONTINUOUS
 62
    5
 10
188.01036
 20
324.52906
 11
188.01036
 21
323.91858
  0
LINE
  8
17DEG_15
  6
CONTINUOUS
 62
    5
 10
194.39581
 20
325.88336
 11
188.01036
 21
326.41758
  0
LINE
  8
17DEG_15
  6
CONTINUOUS
 62
    5
 10
194.39581
 20
325.08323
 11
188.01036
 21
324.52906
  0
LINE
  8
17DEG_15
  6
DASHED1
 62
    5
 10
225.01039
 20
323.46856
 11
222.01044
 21
323.46856
  0
LINE
  8
17DEG_15
  6
CONTINUOUS
 62
    5
 10
195.31648
 20
325.86866
 11
194.39581
 21
325.88336
  0
LINE
  8
17DEG_15
  6
CONTINUOUS
 62
    5
 10
195.31648
 20
325.06853
 11
194.39581
 21
325.08323
  0
LINE
  8
17DEG_15
  6
CONTINUOUS
 62
    5
 10
195.36651
 20
326.26867
 11
224.61038
 21
326.26867
  0
LINE
  8
17DEG_15
  6
CONTINUOUS
 62
    5
 10
195.31648
 20
325.86866
 11
195.31648
 21
326.21864
  0
LINE
  8
17DEG_15
  6
CONTINUOUS
 62
    5
 10
195.31648
 20
324.71855
 11
195.31648
 21
325.06853
  0
LINE
  8
17DEG_15
  6
CONTINUOUS
 62
    5
 10
224.61038
 20
324.66854
 11
195.36651
 21
324.66854
  0
LINE
  8
17DEG_15
  6
CONTINUOUS
 62
    7
 10
220.01036
 20
327.06864
 11
220.01036
 21
323.86871
  0
LINE
  8
17DEG_15
  6
CONTINUOUS
 62
    5
 10
242.01048
 20
325.96858
 11
225.01039
 21
325.96858
  0
LINE
  8
17DEG_15
  6
CONTINUOUS
 62
    5
 10
225.01039
 20
324.96861
 11
242.01048
 21
324.96861
  0
LINE
  8
17DEG_15
  6
CONTINUOUS
 62
    5
 10
242.01048
 20
325.96858
 11
242.01048
 21
324.96861
  0
LINE
  8
17DEG_15
  6
CONTINUOUS
 62
    5
 10
278.88578
 20
341.46861
 11
278.88578
 21
341.86874
  0
LINE
  8
17DEG_15
  6
CONTINUOUS
 62
    5
 10
278.88578
 20
345.06871
 11
278.88578
 21
345.46868
  0
LINE
  8
17DEG_15
  6
CONTINUOUS
 62
    5
 10
283.88581
 20
341.46861
 11
278.88578
 21
341.46861
  0
LINE
  8
17DEG_15
  6
CONTINUOUS
 62
    5
 10
278.88578
 20
345.46868
 11
283.88581
 21
345.46868
  0
LINE
  8
17DEG_15
  6
CONTINUOUS
 62
    5
 10
283.88581
 20
345.46868
 11
283.88581
 21
341.46861
  0
LINE
  8
17DEG_15
  6
CONTINUOUS
 62
    5
 10
283.4858
 20
344.2687
 11
283.4858
 21
342.66859
  0
LINE
  8
17DEG_15
  6
CONTINUOUS
 62
    5
 10
256.88583
 20
345.06871
 11
256.79926
 21
345.01866
  0
LINE
  8
17DEG_15
  6
CONTINUOUS
 62
    5
 10
256.88583
 20
345.06871
 11
278.88578
 21
345.06871
  0
LINE
  8
17DEG_15
  6
CONTINUOUS
 62
    5
 10
256.88583
 20
341.86874
 11
256.79926
 21
341.91863
  0
LINE
  8
17DEG_15
  6
CONTINUOUS
 62
    5
 10
278.88578
 20
341.86874
 11
256.88583
 21
341.86874
  0
LINE
  8
17DEG_15
  6
CONTINUOUS
 62
    5
 10
256.79926
 20
341.91863
 11
246.88578
 21
341.91863
  0
LINE
  8
17DEG_15
  6
CONTINUOUS
 62
    5
 10
246.88578
 20
345.01866
 11
256.79926
 21
345.01866
  0
LINE
  8
17DEG_15
  6
CONTINUOUS
 62
    5
 10
246.88578
 20
345.01866
 11
246.88578
 21
344.41765
  0
LINE
  8
17DEG_15
  6
CONTINUOUS
 62
    5
 10
246.88578
 20
342.5291
 11
246.88578
 21
341.91863
  0
LINE
  8
17DEG_15
  6
CONTINUOUS
 62
    5
 10
253.27123
 20
343.88341
 11
246.88578
 21
344.41765
  0
LINE
  8
17DEG_15
  6
CONTINUOUS
 62
    5
 10
253.27123
 20
343.08328
 11
246.88578
 21
342.5291
  0
LINE
  8
17DEG_15
  6
DASHED1
 62
    5
 10
283.88581
 20
341.46861
 11
280.88586
 21
341.46861
  0
LINE
  8
17DEG_15
  6
CONTINUOUS
 62
    5
 10
254.1919
 20
343.86873
 11
253.27123
 21
343.88341
  0
LINE
  8
17DEG_15
  6
CONTINUOUS
 62
    5
 10
254.1919
 20
343.0686
 11
253.27123
 21
343.08328
  0
LINE
  8
17DEG_15
  6
CONTINUOUS
 62
    5
 10
254.24193
 20
344.2687
 11
283.4858
 21
344.2687
  0
LINE
  8
17DEG_15
  6
CONTINUOUS
 62
    5
 10
254.1919
 20
343.86873
 11
254.1919
 21
344.21869
  0
LINE
  8
17DEG_15
  6
CONTINUOUS
 62
    5
 10
254.1919
 20
342.7186
 11
254.1919
 21
343.0686
  0
LINE
  8
17DEG_15
  6
CONTINUOUS
 62
    5
 10
283.4858
 20
342.66859
 11
254.24193
 21
342.66859
  0
LINE
  8
17DEG_15
  6
CONTINUOUS
 62
    7
 10
278.88578
 20
345.06871
 11
278.88578
 21
341.86874
  0
LINE
  8
17DEG_15
  6
CONTINUOUS
 62
    5
 10
300.8859
 20
343.96863
 11
283.88581
 21
343.96863
  0
LINE
  8
17DEG_15
  6
CONTINUOUS
 62
    5
 10
283.88581
 20
342.96866
 11
300.8859
 21
342.96866
  0
LINE
  8
17DEG_15
  6
CONTINUOUS
 62
    5
 10
300.8859
 20
343.96863
 11
300.8859
 21
342.96866
  0
LINE
  8
17DEG_15
  6
CONTINUOUS
 62
    5
 10
330.40159
 20
357.71858
 11
330.40159
 21
358.11874
  0
LINE
  8
17DEG_15
  6
CONTINUOUS
 62
    5
 10
330.40159
 20
361.31868
 11
330.40159
 21
361.71869
  0
LINE
  8
17DEG_15
  6
CONTINUOUS
 62
    5
 10
335.40161
 20
357.71858
 11
330.40159
 21
357.71858
  0
LINE
  8
17DEG_15
  6
CONTINUOUS
 62
    5
 10
330.40159
 20
361.71869
 11
335.40161
 21
361.71869
  0
LINE
  8
17DEG_15
  6
CONTINUOUS
 62
    5
 10
335.40161
 20
361.71869
 11
335.40161
 21
357.71858
  0
LINE
  8
17DEG_15
  6
CONTINUOUS
 62
    5
 10
335.00162
 20
360.51871
 11
335.00162
 21
358.91856
  0
LINE
  8
17DEG_15
  6
CONTINUOUS
 62
    5
 10
308.40163
 20
361.31868
 11
308.31506
 21
361.26867
  0
LINE
  8
17DEG_15
  6
CONTINUOUS
 62
    5
 10
308.40163
 20
361.31868
 11
330.40159
 21
361.31868
  0
LINE
  8
17DEG_15
  6
CONTINUOUS
 62
    5
 10
308.40163
 20
358.11874
 11
308.31506
 21
358.16859
  0
LINE
  8
17DEG_15
  6
CONTINUOUS
 62
    5
 10
330.40159
 20
358.11874
 11
308.40163
 21
358.11874
  0
LINE
  8
17DEG_15
  6
CONTINUOUS
 62
    5
 10
308.31506
 20
358.16859
 11
298.40158
 21
358.16859
  0
LINE
  8
17DEG_15
  6
CONTINUOUS
 62
    5
 10
298.40158
 20
361.26867
 11
308.31506
 21
361.26867
  0
LINE
  8
17DEG_15
  6
CONTINUOUS
 62
    5
 10
298.40158
 20
361.26867
 11
298.40158
 21
360.66761
  0
LINE
  8
17DEG_15
  6
CONTINUOUS
 62
    5
 10
298.40158
 20
358.77907
 11
298.40158
 21
358.16859
  0
LINE
  8
17DEG_15
  6
CONTINUOUS
 62
    5
 10
304.78705
 20
360.13338
 11
298.40158
 21
360.66761
  0
LINE
  8
17DEG_15
  6
CONTINUOUS
 62
    5
 10
304.78705
 20
359.33324
 11
298.40158
 21
358.77907
  0
LINE
  8
17DEG_15
  6
DASHED1
 62
    5
 10
335.40161
 20
357.71858
 11
332.40166
 21
357.71858
  0
LINE
  8
17DEG_15
  6
CONTINUOUS
 62
    5
 10
305.70772
 20
360.1187
 11
304.78705
 21
360.13338
  0
LINE
  8
17DEG_15
  6
CONTINUOUS
 62
    5
 10
305.70772
 20
359.31856
 11
304.78705
 21
359.33324
  0
LINE
  8
17DEG_15
  6
CONTINUOUS
 62
    5
 10
305.75773
 20
360.51871
 11
335.00162
 21
360.51871
  0
LINE
  8
17DEG_15
  6
CONTINUOUS
 62
    5
 10
305.70772
 20
360.1187
 11
305.70772
 21
360.46865
  0
LINE
  8
17DEG_15
  6
CONTINUOUS
 62
    5
 10
305.70772
 20
358.96857
 11
305.70772
 21
359.31856
  0
LINE
  8
17DEG_15
  6
CONTINUOUS
 62
    5
 10
335.00162
 20
358.91856
 11
305.75773
 21
358.91856
  0
LINE
  8
17DEG_15
  6
CONTINUOUS
 62
    7
 10
330.40159
 20
361.31868
 11
330.40159
 21
358.11874
  0
LINE
  8
17DEG_15
  6
CONTINUOUS
 62
    5
 10
352.4017
 20
360.2186
 11
335.40161
 21
360.2186
  0
LINE
  8
17DEG_15
  6
CONTINUOUS
 62
    5
 10
335.40161
 20
359.21862
 11
352.4017
 21
359.21862
  0
LINE
  8
17DEG_15
  6
CONTINUOUS
 62
    5
 10
352.4017
 20
360.2186
 11
352.4017
 21
359.21862
  0
LINE
  8
17DEG_15
  6
CONTINUOUS
 62
    5
 10
380.28227
 20
373.4686
 11
380.28227
 21
373.86876
  0
LINE
  8
17DEG_15
  6
CONTINUOUS
 62
    5
 10
380.28227
 20
377.0687
 11
380.28227
 21
377.4687
  0
LINE
  8
17DEG_15
  6
CONTINUOUS
 62
    5
 10
385.28227
 20
373.4686
 11
380.28227
 21
373.4686
  0
LINE
  8
17DEG_15
  6
CONTINUOUS
 62
    5
 10
380.28227
 20
377.4687
 11
385.28227
 21
377.4687
  0
LINE
  8
17DEG_15
  6
CONTINUOUS
 62
    5
 10
385.28227
 20
377.4687
 11
385.28227
 21
373.4686
  0
LINE
  8
17DEG_15
  6
CONTINUOUS
 62
    5
 10
384.88227
 20
376.26872
 11
384.88227
 21
374.66858
  0
LINE
  8
17DEG_15
  6
CONTINUOUS
 62
    5
 10
358.28229
 20
377.0687
 11
358.19575
 21
377.01869
  0
LINE
  8
17DEG_15
  6
CONTINUOUS
 62
    5
 10
358.28229
 20
377.0687
 11
380.28227
 21
377.0687
  0
LINE
  8
17DEG_15
  6
CONTINUOUS
 62
    5
 10
358.28229
 20
373.86876
 11
358.19575
 21
373.91861
  0
LINE
  8
17DEG_15
  6
CONTINUOUS
 62
    5
 10
380.28227
 20
373.86876
 11
358.28229
 21
373.86876
  0
LINE
  8
17DEG_15
  6
CONTINUOUS
 62
    5
 10
358.19575
 20
373.91861
 11
348.28224
 21
373.91861
  0
LINE
  8
17DEG_15
  6
CONTINUOUS
 62
    5
 10
348.28224
 20
377.01869
 11
358.19575
 21
377.01869
  0
LINE
  8
17DEG_15
  6
CONTINUOUS
 62
    5
 10
348.28224
 20
377.01869
 11
348.28224
 21
376.41763
  0
LINE
  8
17DEG_15
  6
CONTINUOUS
 62
    5
 10
348.28224
 20
374.52913
 11
348.28224
 21
373.91861
  0
LINE
  8
17DEG_15
  6
CONTINUOUS
 62
    5
 10
354.66771
 20
375.88344
 11
348.28224
 21
376.41763
  0
LINE
  8
17DEG_15
  6
CONTINUOUS
 62
    5
 10
354.66771
 20
375.0833
 11
348.28224
 21
374.52913
  0
LINE
  8
17DEG_15
  6
DASHED1
 62
    5
 10
385.28227
 20
373.4686
 11
382.28234
 21
373.4686
  0
LINE
  8
17DEG_15
  6
CONTINUOUS
 62
    5
 10
355.58836
 20
375.86872
 11
354.66771
 21
375.88344
  0
LINE
  8
17DEG_15
  6
CONTINUOUS
 62
    5
 10
355.58836
 20
375.06858
 11
354.66771
 21
375.0833
  0
LINE
  8
17DEG_15
  6
CONTINUOUS
 62
    5
 10
355.63841
 20
376.26872
 11
384.88227
 21
376.26872
  0
LINE
  8
17DEG_15
  6
CONTINUOUS
 62
    5
 10
355.58836
 20
375.86872
 11
355.58836
 21
376.21871
  0
LINE
  8
17DEG_15
  6
CONTINUOUS
 62
    5
 10
355.58836
 20
374.71863
 11
355.58836
 21
375.06858
  0
LINE
  8
17DEG_15
  6
CONTINUOUS
 62
    5
 10
384.88227
 20
374.66858
 11
355.63841
 21
374.66858
  0
LINE
  8
17DEG_15
  6
CONTINUOUS
 62
    7
 10
380.28227
 20
377.0687
 11
380.28227
 21
373.86876
  0
LINE
  8
17DEG_15
  6
CONTINUOUS
 62
    5
 10
402.28236
 20
375.96866
 11
385.28227
 21
375.96866
  0
LINE
  8
17DEG_15
  6
CONTINUOUS
 62
    5
 10
385.28227
 20
374.96868
 11
402.28236
 21
374.96868
  0
LINE
  8
17DEG_15
  6
CONTINUOUS
 62
    5
 10
402.28236
 20
375.96866
 11
402.28236
 21
374.96868
  0
LINE
  8
17DEG_15
  6
CONTINUOUS
 62
    5
 10
429.34507
 20
388.46857
 11
429.34507
 21
388.8687
  0
LINE
  8
17DEG_15
  6
CONTINUOUS
 62
    5
 10
429.34507
 20
392.06863
 11
429.34507
 21
392.46864
  0
LINE
  8
17DEG_15
  6
CONTINUOUS
 62
    5
 10
434.34512
 20
388.46857
 11
429.34507
 21
388.46857
  0
LINE
  8
17DEG_15
  6
CONTINUOUS
 62
    5
 10
429.34507
 20
392.46864
 11
434.34512
 21
392.46864
  0
LINE
  8
17DEG_15
  6
CONTINUOUS
 62
    5
 10
434.34512
 20
392.46864
 11
434.34512
 21
388.46857
  0
LINE
  8
17DEG_15
  6
CONTINUOUS
 62
    5
 10
433.94511
 20
391.26866
 11
433.94511
 21
389.66855
  0
LINE
  8
17DEG_15
  6
CONTINUOUS
 62
    5
 10
407.34513
 20
392.06863
 11
407.25855
 21
392.01862
  0
LINE
  8
17DEG_15
  6
CONTINUOUS
 62
    5
 10
407.34513
 20
392.06863
 11
429.34507
 21
392.06863
  0
LINE
  8
17DEG_15
  6
CONTINUOUS
 62
    5
 10
407.34513
 20
388.8687
 11
407.25855
 21
388.91859
  0
LINE
  8
17DEG_15
  6
CONTINUOUS
 62
    5
 10
429.34507
 20
388.8687
 11
407.34513
 21
388.8687
  0
LINE
  8
17DEG_15
  6
CONTINUOUS
 62
    5
 10
407.25855
 20
388.91859
 11
397.34508
 21
388.91859
  0
LINE
  8
17DEG_15
  6
CONTINUOUS
 62
    5
 10
397.34508
 20
392.01862
 11
407.25855
 21
392.01862
  0
LINE
  8
17DEG_15
  6
CONTINUOUS
 62
    5
 10
397.34508
 20
392.01862
 11
397.34508
 21
391.41757
  0
LINE
  8
17DEG_15
  6
CONTINUOUS
 62
    5
 10
397.34508
 20
389.52907
 11
397.34508
 21
388.91859
  0
LINE
  8
17DEG_15
  6
CONTINUOUS
 62
    5
 10
403.73055
 20
390.88337
 11
397.34508
 21
391.41757
  0
LINE
  8
17DEG_15
  6
CONTINUOUS
 62
    5
 10
403.73055
 20
390.08324
 11
397.34508
 21
389.52907
  0
LINE
  8
17DEG_15
  6
DASHED1
 62
    5
 10
434.34512
 20
388.46857
 11
431.34514
 21
388.46857
  0
LINE
  8
17DEG_15
  6
CONTINUOUS
 62
    5
 10
404.6512
 20
390.86865
 11
403.73055
 21
390.88337
  0
LINE
  8
17DEG_15
  6
CONTINUOUS
 62
    5
 10
404.6512
 20
390.06852
 11
403.73055
 21
390.08324
  0
LINE
  8
17DEG_15
  6
CONTINUOUS
 62
    5
 10
404.70121
 20
391.26866
 11
433.94511
 21
391.26866
  0
LINE
  8
17DEG_15
  6
CONTINUOUS
 62
    5
 10
404.6512
 20
390.86865
 11
404.6512
 21
391.21865
  0
LINE
  8
17DEG_15
  6
CONTINUOUS
 62
    5
 10
404.6512
 20
389.71856
 11
404.6512
 21
390.06852
  0
LINE
  8
17DEG_15
  6
CONTINUOUS
 62
    5
 10
433.94511
 20
389.66855
 11
404.70121
 21
389.66855
  0
LINE
  8
17DEG_15
  6
CONTINUOUS
 62
    7
 10
429.34507
 20
392.06863
 11
429.34507
 21
388.8687
  0
LINE
  8
17DEG_15
  6
CONTINUOUS
 62
    5
 10
451.34521
 20
390.9686
 11
434.34512
 21
390.9686
  0
LINE
  8
17DEG_15
  6
CONTINUOUS
 62
    5
 10
434.34512
 20
389.96862
 11
451.34521
 21
389.96862
  0
LINE
  8
17DEG_15
  6
CONTINUOUS
 62
    5
 10
451.34521
 20
390.9686
 11
451.34521
 21
389.96862
  0
LINE
  8
17DEG_15
  6
CONTINUOUS
 62
    5
 10
480.86089
 20
403.71848
 11
480.86089
 21
404.11861
  0
LINE
  8
17DEG_15
  6
CONTINUOUS
 62
    5
 10
480.86089
 20
407.31858
 11
480.86089
 21
407.71855
  0
LINE
  8
17DEG_15
  6
CONTINUOUS
 62
    5
 10
485.86094
 20
403.71848
 11
480.86089
 21
403.71848
  0
LINE
  8
17DEG_15
  6
CONTINUOUS
 62
    5
 10
480.86089
 20
407.71855
 11
485.86094
 21
407.71855
  0
LINE
  8
17DEG_15
  6
CONTINUOUS
 62
    5
 10
485.86094
 20
407.71855
 11
485.86094
 21
403.71848
  0
LINE
  8
17DEG_15
  6
CONTINUOUS
 62
    5
 10
485.46093
 20
406.51857
 11
485.46093
 21
404.91846
  0
LINE
  8
17DEG_15
  6
CONTINUOUS
 62
    5
 10
458.86092
 20
407.31858
 11
458.77437
 21
407.26853
  0
LINE
  8
17DEG_15
  6
CONTINUOUS
 62
    5
 10
458.86092
 20
407.31858
 11
480.86089
 21
407.31858
  0
LINE
  8
17DEG_15
  6
CONTINUOUS
 62
    5
 10
458.86092
 20
404.11861
 11
458.77437
 21
404.1685
  0
LINE
  8
17DEG_15
  6
CONTINUOUS
 62
    5
 10
480.86089
 20
404.11861
 11
458.86092
 21
404.11861
  0
LINE
  8
17DEG_15
  6
CONTINUOUS
 62
    5
 10
458.77437
 20
404.1685
 11
448.8609
 21
404.1685
  0
LINE
  8
17DEG_15
  6
CONTINUOUS
 62
    5
 10
448.8609
 20
407.26853
 11
458.77437
 21
407.26853
  0
LINE
  8
17DEG_15
  6
CONTINUOUS
 62
    5
 10
448.8609
 20
407.26853
 11
448.8609
 21
406.66748
  0
LINE
  8
17DEG_15
  6
CONTINUOUS
 62
    5
 10
448.8609
 20
404.77898
 11
448.8609
 21
404.1685
  0
LINE
  8
17DEG_15
  6
CONTINUOUS
 62
    5
 10
455.24634
 20
406.13328
 11
448.8609
 21
406.66748
  0
LINE
  8
17DEG_15
  6
CONTINUOUS
 62
    5
 10
455.24634
 20
405.33315
 11
448.8609
 21
404.77898
  0
LINE
  8
17DEG_15
  6
DASHED1
 62
    5
 10
485.86094
 20
403.71848
 11
482.86097
 21
403.71848
  0
LINE
  8
17DEG_15
  6
CONTINUOUS
 62
    5
 10
456.16703
 20
406.1186
 11
455.24634
 21
406.13328
  0
LINE
  8
17DEG_15
  6
CONTINUOUS
 62
    5
 10
456.16703
 20
405.31843
 11
455.24634
 21
405.33315
  0
LINE
  8
17DEG_15
  6
CONTINUOUS
 62
    5
 10
456.21704
 20
406.51857
 11
485.46093
 21
406.51857
  0
LINE
  8
17DEG_15
  6
CONTINUOUS
 62
    5
 10
456.16703
 20
406.1186
 11
456.16703
 21
406.46856
  0
LINE
  8
17DEG_15
  6
CONTINUOUS
 62
    5
 10
456.16703
 20
404.96847
 11
456.16703
 21
405.31843
  0
LINE
  8
17DEG_15
  6
CONTINUOUS
 62
    5
 10
485.46093
 20
404.91846
 11
456.21704
 21
404.91846
  0
LINE
  8
17DEG_15
  6
CONTINUOUS
 62
    7
 10
480.86089
 20
407.31858
 11
480.86089
 21
404.11861
  0
LINE
  8
17DEG_15
  6
CONTINUOUS
 62
    5
 10
502.86103
 20
406.21851
 11
485.86094
 21
406.21851
  0
LINE
  8
17DEG_15
  6
CONTINUOUS
 62
    5
 10
485.86094
 20
405.21853
 11
502.86103
 21
405.21853
  0
LINE
  8
17DEG_15
  6
CONTINUOUS
 62
    5
 10
502.86103
 20
406.21851
 11
502.86103
 21
405.21853
  0
LINE
  8
17DEG_15
  6
CONTINUOUS
 62
    5
 10
533.19465
 20
419.71864
 11
533.19465
 21
420.11876
  0
LINE
  8
17DEG_15
  6
CONTINUOUS
 62
    5
 10
533.19465
 20
423.31874
 11
533.19465
 21
423.71871
  0
LINE
  8
17DEG_15
  6
CONTINUOUS
 62
    5
 10
538.19466
 20
419.71864
 11
533.19465
 21
419.71864
  0
LINE
  8
17DEG_15
  6
CONTINUOUS
 62
    5
 10
533.19465
 20
423.71871
 11
538.19466
 21
423.71871
  0
LINE
  8
17DEG_15
  6
CONTINUOUS
 62
    5
 10
538.19466
 20
423.71871
 11
538.19466
 21
419.71864
  0
LINE
  8
17DEG_15
  6
CONTINUOUS
 62
    5
 10
537.79469
 20
422.51872
 11
537.79469
 21
420.91862
  0
LINE
  8
17DEG_15
  6
CONTINUOUS
 62
    5
 10
511.19468
 20
423.31874
 11
511.10813
 21
423.26869
  0
LINE
  8
17DEG_15
  6
CONTINUOUS
 62
    5
 10
511.19468
 20
423.31874
 11
533.19465
 21
423.31874
  0
LINE
  8
17DEG_15
  6
CONTINUOUS
 62
    5
 10
511.19468
 20
420.11876
 11
511.10813
 21
420.16865
  0
LINE
  8
17DEG_15
  6
CONTINUOUS
 62
    5
 10
533.19465
 20
420.11876
 11
511.19468
 21
420.11876
  0
LINE
  8
17DEG_15
  6
CONTINUOUS
 62
    5
 10
511.10813
 20
420.16865
 11
501.19463
 21
420.16865
  0
LINE
  8
17DEG_15
  6
CONTINUOUS
 62
    5
 10
501.19463
 20
423.26869
 11
511.10813
 21
423.26869
  0
LINE
  8
17DEG_15
  6
CONTINUOUS
 62
    5
 10
501.19463
 20
423.26869
 11
501.19463
 21
422.66767
  0
LINE
  8
17DEG_15
  6
CONTINUOUS
 62
    5
 10
501.19463
 20
420.77913
 11
501.19463
 21
420.16865
  0
LINE
  8
17DEG_15
  6
CONTINUOUS
 62
    5
 10
507.5801
 20
422.13344
 11
501.19463
 21
422.66767
  0
LINE
  8
17DEG_15
  6
CONTINUOUS
 62
    5
 10
507.5801
 20
421.3333
 11
501.19463
 21
420.77913
  0
LINE
  8
17DEG_15
  6
DASHED1
 62
    5
 10
538.19466
 20
419.71864
 11
535.19473
 21
419.71864
  0
LINE
  8
17DEG_15
  6
CONTINUOUS
 62
    5
 10
508.50075
 20
422.11876
 11
507.5801
 21
422.13344
  0
LINE
  8
17DEG_15
  6
CONTINUOUS
 62
    5
 10
508.50075
 20
421.31858
 11
507.5801
 21
421.3333
  0
LINE
  8
17DEG_15
  6
CONTINUOUS
 62
    5
 10
508.5508
 20
422.51872
 11
537.79469
 21
422.51872
  0
LINE
  8
17DEG_15
  6
CONTINUOUS
 62
    5
 10
508.50075
 20
422.11876
 11
508.50075
 21
422.46871
  0
LINE
  8
17DEG_15
  6
CONTINUOUS
 62
    5
 10
508.50075
 20
420.96863
 11
508.50075
 21
421.31858
  0
LINE
  8
17DEG_15
  6
CONTINUOUS
 62
    5
 10
537.79469
 20
420.91862
 11
508.5508
 21
420.91862
  0
LINE
  8
17DEG_15
  6
CONTINUOUS
 62
    7
 10
533.19465
 20
423.31874
 11
533.19465
 21
420.11876
  0
LINE
  8
17DEG_15
  6
CONTINUOUS
 62
    5
 10
555.19475
 20
422.21866
 11
538.19466
 21
422.21866
  0
LINE
  8
17DEG_15
  6
CONTINUOUS
 62
    5
 10
538.19466
 20
421.21868
 11
555.19475
 21
421.21868
  0
LINE
  8
17DEG_15
  6
CONTINUOUS
 62
    5
 10
555.19475
 20
422.21866
 11
555.19475
 21
421.21868
  0
LINE
  8
17DEG_15
  6
CONTINUOUS
 62
    5
 10
585.52818
 20
435.71851
 11
585.52818
 21
436.11868
  0
LINE
  8
17DEG_15
  6
CONTINUOUS
 62
    5
 10
585.52818
 20
439.31861
 11
585.52818
 21
439.71862
  0
LINE
  8
17DEG_15
  6
CONTINUOUS
 62
    5
 10
590.52822
 20
435.71851
 11
585.52818
 21
435.71851
  0
LINE
  8
17DEG_15
  6
CONTINUOUS
 62
    5
 10
585.52818
 20
439.71862
 11
590.52822
 21
439.71862
  0
LINE
  8
17DEG_15
  6
CONTINUOUS
 62
    5
 10
590.52822
 20
439.71862
 11
590.52822
 21
435.71851
  0
LINE
  8
17DEG_15
  6
CONTINUOUS
 62
    5
 10
590.12821
 20
438.51864
 11
590.12821
 21
436.91849
  0
LINE
  8
17DEG_15
  6
CONTINUOUS
 62
    5
 10
563.52824
 20
439.31861
 11
563.44165
 21
439.2686
  0
LINE
  8
17DEG_15
  6
CONTINUOUS
 62
    5
 10
563.52824
 20
439.31861
 11
585.52818
 21
439.31861
  0
LINE
  8
17DEG_15
  6
CONTINUOUS
 62
    5
 10
563.52824
 20
436.11868
 11
563.44165
 21
436.16853
  0
LINE
  8
17DEG_15
  6
CONTINUOUS
 62
    5
 10
585.52818
 20
436.11868
 11
563.52824
 21
436.11868
  0
LINE
  8
17DEG_15
  6
CONTINUOUS
 62
    5
 10
563.44165
 20
436.16853
 11
553.52819
 21
436.16853
  0
LINE
  8
17DEG_15
  6
CONTINUOUS
 62
    5
 10
553.52819
 20
439.2686
 11
563.44165
 21
439.2686
  0
LINE
  8
17DEG_15
  6
CONTINUOUS
 62
    5
 10
553.52819
 20
439.2686
 11
553.52819
 21
438.66755
  0
LINE
  8
17DEG_15
  6
CONTINUOUS
 62
    5
 10
553.52819
 20
436.77905
 11
553.52819
 21
436.16853
  0
LINE
  8
17DEG_15
  6
CONTINUOUS
 62
    5
 10
559.91362
 20
438.13335
 11
553.52819
 21
438.66755
  0
LINE
  8
17DEG_15
  6
CONTINUOUS
 62
    5
 10
559.91362
 20
437.33322
 11
553.52819
 21
436.77905
  0
LINE
  8
17DEG_15
  6
DASHED1
 62
    5
 10
590.52822
 20
435.71851
 11
587.52825
 21
435.71851
  0
LINE
  8
17DEG_15
  6
CONTINUOUS
 62
    5
 10
560.83431
 20
438.11863
 11
559.91362
 21
438.13335
  0
LINE
  8
17DEG_15
  6
CONTINUOUS
 62
    5
 10
560.83431
 20
437.3185
 11
559.91362
 21
437.33322
  0
LINE
  8
17DEG_15
  6
CONTINUOUS
 62
    5
 10
560.88432
 20
438.51864
 11
590.12821
 21
438.51864
  0
LINE
  8
17DEG_15
  6
CONTINUOUS
 62
    5
 10
560.83431
 20
438.11863
 11
560.83431
 21
438.46863
  0
LINE
  8
17DEG_15
  6
CONTINUOUS
 62
    5
 10
560.83431
 20
436.96854
 11
560.83431
 21
437.3185
  0
LINE
  8
17DEG_15
  6
CONTINUOUS
 62
    5
 10
590.12821
 20
436.91849
 11
560.88432
 21
436.91849
  0
LINE
  8
17DEG_15
  6
CONTINUOUS
 62
    7
 10
585.52818
 20
439.31861
 11
585.52818
 21
436.11868
  0
LINE
  8
17DEG_15
  6
CONTINUOUS
 62
    5
 10
607.52831
 20
438.21857
 11
590.52822
 21
438.21857
  0
LINE
  8
17DEG_15
  6
CONTINUOUS
 62
    5
 10
590.52822
 20
437.2186
 11
607.52831
 21
437.2186
  0
LINE
  8
17DEG_15
  6
CONTINUOUS
 62
    5
 10
607.52831
 20
438.21857
 11
607.52831
 21
437.2186
  0
LINE
  8
2-4
  6
CONTINUOUS
 62
    7
 10
84.340576
 20
293.71856
 11
84.340576
 21
284.45851
  0
LINE
  8
2-4
  6
CONTINUOUS
 62
    7
 10
87.240576
 20
282.95706
 11
87.240576
 21
270.96858
  0
LINE
  8
ADD_LINE
  6
DOT
 62
    7
 10
151.57057
 20
249.21852
 11
151.57057
 21
161.43424
  0
LINE
  8
2-5
  6
CONTINUOUS
 62
    7
 10
114.5255
 20
291.2185
 11
114.5255
 21
290.2185
  0
LINE
  8
2-5
  6
CONTINUOUS
 62
    4
 10
183.17304
 20
165.71858
 11
183.17304
 21
287.71866
  0
LINE
  8
2-5
  6
CONTINUOUS
 62
    4
 10
162.67056
 20
165.71858
 11
186.37303
 21
165.71858
  0
LINE
  8
2-5
  6
CONTINUOUS
 62
    4
 10
183.17304
 20
165.71858
 11
182.39658
 21
168.61636
  0
LINE
  8
2-5
  6
CONTINUOUS
 62
    4
 10
183.17304
 20
165.71858
 11
183.94949
 21
168.61636
  0
LINE
  8
2-5
  6
CONTINUOUS
 62
    4
 10
183.17304
 20
287.71866
 11
182.39658
 21
284.82088
  0
LINE
  8
2-5
  6
CONTINUOUS
 62
    4
 10
183.17304
 20
287.71866
 11
183.94949
 21
284.82088
  0
LINE
  8
2-5
  6
CONTINUOUS
 62
    4
 10
126.41082
 20
165.71858
 11
126.41082
 21
285.21852
  0
LINE
  8
2-5
  6
CONTINUOUS
 62
    4
 10
126.75061
 20
165.71858
 11
124.31083
 21
165.71858
  0
LINE
  8
2-5
  6
CONTINUOUS
 62
    4
 10
127.85061
 20
285.21852
 11
125.41083
 21
285.21852
  0
LINE
  8
2-5
  6
CONTINUOUS
 62
    4
 10
126.41082
 20
165.71858
 11
125.63436
 21
168.61636
  0
LINE
  8
2-5
  6
CONTINUOUS
 62
    4
 10
126.41082
 20
165.71858
 11
127.18729
 21
168.61636
  0
LINE
  8
2-5
  6
CONTINUOUS
 62
    4
 10
126.41082
 20
285.21852
 11
125.63436
 21
282.32073
  0
LINE
  8
2-5
  6
CONTINUOUS
 62
    4
 10
126.41082
 20
285.21852
 11
127.18729
 21
282.32073
  0
LINE
  8
ADD_LINE
  6
DOT
 62
    7
 10
100.34058
 20
282.91856
 11
100.34058
 21
159.07966
  0
LINE
  8
2-5
  6
CONTINUOUS
 62
    7
 10
100.34058
 20
285.2185
 11
153.47058
 21
285.2185
  0
LINE
  8
2-5
  6
CONTINUOUS
 62
    7
 10
114.5255
 20
290.2185
 11
153.47058
 21
290.2185
  0
LINE
  8
2-1
  6
CONTINUOUS
 62
    7
 10
151.57057
 20
285.2185
 11
151.57057
 21
249.21852
  0
LINE
  8
2-2
  6
CENTER1
 62
    5
 10
314.09419
 20
401.71849
 11
598.4688
 21
401.71849
  0
LINE
  8
2-5
  6
CONTINUOUS
 62
    7
 10
732.86196
 20
455.71853
 11
732.86196
 21
446.71858
  0
LINE
  8
2-5
  6
CONTINUOUS
 62
    7
 10
153.47058
 20
285.2185
 11
153.47058
 21
290.21852
  0
LINE
  8
ADD_LINE
  6
DOT
 62
    7
 10
647.78146
 20
446.21851
 11
692.26299
 21
446.21851
  0
LINE
  8
ADD_LINE
  6
DOT
 62
    7
 10
642.86186
 20
451.71858
 11
701.15322
 21
451.71858
  0
LINE
  8
2-6
  6
CONTINUOUS
 62
    6
 10
678.93483
 20
446.71858
 11
675.51452
 21
446.71858
  0
LINE
  8
2-5
  6
CONTINUOUS
 62
    7
 10
694.86211
 20
455.71853
 11
694.86211
 21
450.71861
  0
LINE
  8
ADD_LINE
  6
DOT
 62
    7
 10
673.93133
 20
445.97315
 11
675.28199
 21
446.38607
  0
LINE
  8
ADD_LINE
  6
DOT
 62
    7
 10
674.73391
 20
446.21851
 11
674.73391
 21
156.36253
  0
LINE
  8
2-7
  6
DASHED1
 62
    7
 10
176.57058
 20
290.71865
 11
173.57058
 21
290.71865
  0
LINE
  8
2-7
  6
DASHED1
 62
    7
 10
173.57058
 20
290.71865
 11
173.57058
 21
284.71867
  0
LINE
  8
2-7
  6
DASHED1
 62
    7
 10
176.57058
 20
284.71867
 11
173.57058
 21
284.71867
  0
LINE
  8
2-7
  6
DASHED1
 62
    7
 10
167.57057
 20
249.71851
 11
163.57057
 21
249.71851
  0
LINE
  8
2-7
  6
DASHED1
 62
    7
 10
163.57057
 20
249.71851
 11
163.57057
 21
243.71853
  0
LINE
  8
2-7
  6
DASHED1
 62
    7
 10
167.57057
 20
243.71853
 11
163.57057
 21
243.71853
  0
LINE
  8
2-5
  6
CONTINUOUS
 62
    7
 10
662.86213
 20
450.71861
 11
694.86211
 21
450.71861
  0
LINE
  8
2-5
  6
CONTINUOUS
 62
    7
 10
662.86213
 20
450.71861
 11
662.86213
 21
442.85033
  0
LINE
  8
ADD_LINE
  6
DOT
 62
    7
 10
674.80699
 20
445.9794
 11
674.66084
 21
446.45758
  0
LINE
  8
2-5
  6
CENTER1
 62
    3
 10
712.86202
 20
455.30168
 11
712.86202
 21
443.97131
  0
LINE
  8
2-5
  6
CONTINUOUS
 62
    7
 10
242.20828
 20
318.9685
 11
242.20828
 21
323.96851
  0
LINE
  8
2-5
  6
CONTINUOUS
 62
    7
 10
232.20829
 20
311.18626
 11
232.20829
 21
318.9685
  0
LINE
  8
2-5
  6
CONTINUOUS
 62
    7
 10
252.20827
 20
317.30086
 11
252.20827
 21
323.96851
  0
LINE
  8
2-5
  6
CENTER1
 62
    3
 10
238.04568
 20
309.97593
 11
235.68835
 21
317.68639
  0
LINE
  8
2-5
  6
CONTINUOUS
 62
    7
 10
192.20828
 20
318.9685
 11
242.20828
 21
318.9685
  0
LINE
  8
2-5
  6
CONTINUOUS
 62
    7
 10
220.01046
 20
323.96851
 11
252.20827
 21
323.96851
  0
LINE
  8
2-5
  6
DASHED1
 62
    7
 10
242.20828
 20
322.66851
 11
252.20827
 21
322.66851
  0
LINE
  8
2-5
  6
DASHED1
 62
    7
 10
242.20828
 20
320.26851
 11
252.20827
 21
320.26851
  0
LINE
  8
2-5
  6
CONTINUOUS
 62
    7
 10
504.69419
 20
399.21851
 11
504.69419
 21
404.21847
  0
LINE
  8
2-5
  6
CONTINUOUS
 62
    7
 10
494.69417
 20
391.43626
 11
494.69417
 21
399.21847
  0
LINE
  8
2-5
  6
CONTINUOUS
 62
    7
 10
514.6942
 20
397.55082
 11
514.6942
 21
404.21851
  0
LINE
  8
2-5
  6
CENTER1
 62
    3
 10
500.53161
 20
390.22589
 11
498.17424
 21
397.93639
  0
LINE
  8
2-5
  6
DASHED1
 62
    7
 10
504.69419
 20
402.91847
 11
514.6942
 21
402.91847
  0
LINE
  8
2-5
  6
DASHED1
 62
    7
 10
504.69419
 20
400.51851
 11
514.6942
 21
400.51851
  0
LINE
  8
2-5
  6
CONTINUOUS
 62
    7
 10
480.86101
 20
404.21847
 11
514.6942
 21
404.21847
  0
LINE
  8
2-5
  6
CONTINUOUS
 62
    7
 10
454.69417
 20
399.21851
 11
504.69419
 21
399.21851
  0
LINE
  8
2-8
  6
CONTINUOUS
 62
    4
 10
151.57057
 20
301.21679
 11
171.57057
 21
301.21679
  0
LINE
  8
2-8
  6
CONTINUOUS
 62
    4
 10
151.57057
 20
290.21852
 11
151.57057
 21
303.31678
  0
LINE
  8
2-8
  6
CONTINUOUS
 62
    4
 10
151.57057
 20
301.21679
 11
154.46834
 21
301.99324
  0
LINE
  8
2-8
  6
CONTINUOUS
 62
    4
 10
151.57057
 20
301.21679
 11
154.46834
 21
300.44033
  0
LINE
  8
2-8
  6
CONTINUOUS
 62
    4
 10
171.57057
 20
301.21679
 11
168.67279
 21
301.99324
  0
LINE
  8
2-8
  6
CONTINUOUS
 62
    4
 10
171.57057
 20
301.21679
 11
168.67279
 21
300.44033
  0
LINE
  8
2-8
  6
CONTINUOUS
 62
    4
 10
171.57057
 20
295.75223
 11
171.57057
 21
303.31678
  0
LINE
  8
2-8
  6
CONTINUOUS
 62
    4
 10
161.57057
 20
293.92817
 11
167.57056
 21
293.92817
  0
LINE
  8
2-8
  6
CONTINUOUS
 62
    4
 10
161.57057
 20
291.42452
 11
161.57057
 21
296.02817
  0
LINE
  8
2-8
  6
CONTINUOUS
 62
    4
 10
167.57056
 20
291.42452
 11
167.57056
 21
296.02817
  0
LINE
  8
2-8
  6
CONTINUOUS
 62
    4
 10
161.57057
 20
293.92817
 11
164.46834
 21
294.70462
  0
LINE
  8
2-8
  6
CONTINUOUS
 62
    4
 10
161.57057
 20
293.92817
 11
164.46834
 21
293.15172
  0
LINE
  8
2-8
  6
CONTINUOUS
 62
    4
 10
167.57056
 20
293.92817
 11
164.67279
 21
294.70462
  0
LINE
  8
2-8
  6
CONTINUOUS
 62
    4
 10
167.57056
 20
293.92817
 11
164.67279
 21
293.15172
  0
LINE
  8
2-8
  6
CONTINUOUS
 62
    4
 10
158.57035
 20
268.80769
 11
161.57057
 21
268.80769
  0
LINE
  8
2-8
  6
CONTINUOUS
 62
    4
 10
158.57035
 20
284.71867
 11
158.57035
 21
266.70769
  0
LINE
  8
2-8
  6
CONTINUOUS
 62
    4
 10
161.57057
 20
284.71867
 11
161.57057
 21
266.70769
  0
LINE
  8
2-8
  6
CONTINUOUS
 62
    4
 10
158.57035
 20
268.80769
 11
161.46812
 21
269.58414
  0
LINE
  8
2-8
  6
CONTINUOUS
 62
    4
 10
158.57035
 20
268.80769
 11
161.46812
 21
268.03124
  0
LINE
  8
2-8
  6
CONTINUOUS
 62
    4
 10
161.57057
 20
268.80769
 11
158.6728
 21
269.58414
  0
LINE
  8
2-8
  6
CONTINUOUS
 62
    4
 10
161.57057
 20
268.80769
 11
158.6728
 21
268.03124
  0
LINE
  8
2-8
  6
CONTINUOUS
 62
    4
 10
192.20828
 20
355.28942
 11
242.20828
 21
355.28942
  0
LINE
  8
2-8
  6
CONTINUOUS
 62
    4
 10
192.20828
 20
321.46859
 11
192.20828
 21
357.38944
  0
LINE
  8
2-8
  6
CONTINUOUS
 62
    4
 10
242.20828
 20
321.46859
 11
242.20828
 21
357.38944
  0
LINE
  8
2-8
  6
CONTINUOUS
 62
    4
 10
192.20828
 20
355.28942
 11
195.10607
 21
356.06589
  0
LINE
  8
2-8
  6
CONTINUOUS
 62
    4
 10
192.20828
 20
355.28942
 11
195.10607
 21
354.51295
  0
LINE
  8
2-8
  6
CONTINUOUS
 62
    4
 10
242.20828
 20
355.28942
 11
239.31049
 21
356.06589
  0
LINE
  8
2-8
  6
CONTINUOUS
 62
    4
 10
242.20828
 20
355.28942
 11
239.31049
 21
354.51295
  0
LINE
  8
2-8
  6
CONTINUOUS
 62
    4
 10
232.20829
 20
295.42956
 11
242.20828
 21
295.42956
  0
LINE
  8
2-8
  6
CONTINUOUS
 62
    4
 10
232.20829
 20
318.9685
 11
232.20829
 21
293.32957
  0
LINE
  8
2-8
  6
CONTINUOUS
 62
    4
 10
242.20828
 20
318.9685
 11
242.20828
 21
293.32957
  0
LINE
  8
2-8
  6
CONTINUOUS
 62
    4
 10
232.20829
 20
295.42956
 11
235.10607
 21
296.20601
  0
LINE
  8
2-8
  6
CONTINUOUS
 62
    4
 10
232.20829
 20
295.42956
 11
235.10607
 21
294.65311
  0
LINE
  8
2-8
  6
CONTINUOUS
 62
    4
 10
242.20828
 20
295.42956
 11
239.31049
 21
296.20601
  0
LINE
  8
2-8
  6
CONTINUOUS
 62
    4
 10
242.20828
 20
295.42956
 11
239.31049
 21
294.65311
  0
LINE
  8
2-8
  6
CONTINUOUS
 62
    4
 10
232.20829
 20
305.1648
 11
237.20831
 21
305.1648
  0
LINE
  8
2-8
  6
CONTINUOUS
 62
    4
 10
232.20829
 20
312.71492
 11
232.20829
 21
303.0648
  0
LINE
  8
2-8
  6
CONTINUOUS
 62
    4
 10
237.20831
 20
312.71492
 11
237.20831
 21
303.0648
  0
LINE
  8
2-8
  6
CONTINUOUS
 62
    4
 10
232.20829
 20
305.1648
 11
235.10607
 21
305.94125
  0
LINE
  8
2-8
  6
CONTINUOUS
 62
    4
 10
232.20829
 20
305.1648
 11
235.10607
 21
304.38835
  0
LINE
  8
2-8
  6
CONTINUOUS
 62
    4
 10
237.20831
 20
305.1648
 11
234.31053
 21
305.94125
  0
LINE
  8
2-8
  6
CONTINUOUS
 62
    4
 10
237.20831
 20
305.1648
 11
234.31053
 21
304.38835
  0
LINE
  8
2-8
  6
CONTINUOUS
 62
    4
 10
264.81309
 20
317.30086
 11
264.81309
 21
323.96851
  0
LINE
  8
2-8
  6
CONTINUOUS
 62
    4
 10
252.20827
 20
317.30086
 11
266.91309
 21
317.30086
  0
LINE
  8
2-8
  6
CONTINUOUS
 62
    4
 10
252.20827
 20
323.96851
 11
266.91309
 21
323.96851
  0
LINE
  8
2-8
  6
CONTINUOUS
 62
    4
 10
264.81309
 20
317.30086
 11
264.03664
 21
320.19864
  0
LINE
  8
2-8
  6
CONTINUOUS
 62
    4
 10
264.81309
 20
317.30086
 11
265.58955
 21
320.19864
  0
LINE
  8
2-8
  6
CONTINUOUS
 62
    4
 10
264.81309
 20
323.96851
 11
264.03664
 21
321.07073
  0
LINE
  8
2-8
  6
CONTINUOUS
 62
    4
 10
264.81309
 20
323.96851
 11
265.58955
 21
321.07073
  0
LINE
  8
2-8
  6
CONTINUOUS
 62
    4
 10
228.41742
 20
318.96852
 11
228.41742
 21
323.96841
  0
LINE
  8
2-8
  6
CONTINUOUS
 62
    4
 10
228.41742
 20
318.96852
 11
230.51742
 21
318.96852
  0
LINE
  8
2-8
  6
CONTINUOUS
 62
    4
 10
228.41742
 20
323.96841
 11
230.51742
 21
323.96841
  0
LINE
  8
2-8
  6
CONTINUOUS
 62
    4
 10
228.41742
 20
318.96852
 11
227.64097
 21
321.86631
  0
LINE
  8
2-8
  6
CONTINUOUS
 62
    4
 10
228.41742
 20
318.96852
 11
229.19388
 21
321.86631
  0
LINE
  8
2-8
  6
CONTINUOUS
 62
    4
 10
228.41742
 20
323.96841
 11
227.64097
 21
321.07063
  0
LINE
  8
2-8
  6
CONTINUOUS
 62
    4
 10
228.41742
 20
323.96841
 11
229.19388
 21
321.07063
  0
LINE
  8
2-8
  6
CONTINUOUS
 62
    4
 10
662.86213
 20
473.31494
 11
694.86211
 21
473.31494
  0
LINE
  8
2-8
  6
CONTINUOUS
 62
    4
 10
662.86213
 20
455.71853
 11
662.86213
 21
475.41496
  0
LINE
  8
2-8
  6
CONTINUOUS
 62
    4
 10
694.86211
 20
455.71853
 11
694.86211
 21
475.41496
  0
LINE
  8
2-8
  6
CONTINUOUS
 62
    4
 10
662.86213
 20
473.31494
 11
665.75991
 21
474.09142
  0
LINE
  8
2-8
  6
CONTINUOUS
 62
    4
 10
662.86213
 20
473.31494
 11
665.75991
 21
472.53847
  0
LINE
  8
2-8
  6
CONTINUOUS
 62
    4
 10
694.86211
 20
473.31494
 11
691.96437
 21
474.09142
  0
LINE
  8
2-8
  6
CONTINUOUS
 62
    4
 10
694.86211
 20
473.31494
 11
691.96437
 21
472.53847
  0
LINE
  8
2-8
  6
CONTINUOUS
 62
    4
 10
694.86211
 20
473.31494
 11
732.86196
 21
473.31494
  0
LINE
  8
2-8
  6
CONTINUOUS
 62
    4
 10
732.86196
 20
455.71853
 11
732.86196
 21
475.41496
  0
LINE
  8
2-8
  6
CONTINUOUS
 62
    4
 10
694.86211
 20
473.31494
 11
697.75986
 21
474.09142
  0
LINE
  8
2-8
  6
CONTINUOUS
 62
    4
 10
694.86211
 20
473.31494
 11
697.75986
 21
472.53847
  0
LINE
  8
2-8
  6
CONTINUOUS
 62
    4
 10
732.86196
 20
473.31494
 11
729.96422
 21
474.09142
  0
LINE
  8
2-8
  6
CONTINUOUS
 62
    4
 10
732.86196
 20
473.31494
 11
729.96422
 21
472.53847
  0
LINE
  8
2-8
  6
CONTINUOUS
 62
    4
 10
697.86204
 20
429.66013
 11
712.86202
 21
429.66013
  0
LINE
  8
2-8
  6
CONTINUOUS
 62
    4
 10
697.86204
 20
446.71858
 11
697.86204
 21
427.56012
  0
LINE
  8
2-8
  6
CONTINUOUS
 62
    4
 10
712.86202
 20
446.71858
 11
712.86202
 21
427.56012
  0
LINE
  8
2-8
  6
CONTINUOUS
 62
    4
 10
697.86204
 20
429.66013
 11
700.75979
 21
430.43661
  0
LINE
  8
2-8
  6
CONTINUOUS
 62
    4
 10
697.86204
 20
429.66013
 11
700.75979
 21
428.88366
  0
LINE
  8
2-8
  6
CONTINUOUS
 62
    4
 10
712.86202
 20
429.66013
 11
709.96428
 21
430.43661
  0
LINE
  8
2-8
  6
CONTINUOUS
 62
    4
 10
712.86202
 20
429.66013
 11
709.96428
 21
428.88366
  0
LINE
  8
2-8
  6
CONTINUOUS
 62
    4
 10
712.86202
 20
429.66013
 11
727.862
 21
429.66013
  0
LINE
  8
2-8
  6
CONTINUOUS
 62
    4
 10
727.862
 20
446.71858
 11
727.862
 21
427.56012
  0
LINE
  8
2-8
  6
CONTINUOUS
 62
    4
 10
712.86202
 20
429.66013
 11
715.75976
 21
430.43661
  0
LINE
  8
2-8
  6
CONTINUOUS
 62
    4
 10
712.86202
 20
429.66013
 11
715.75976
 21
428.88366
  0
LINE
  8
2-8
  6
CONTINUOUS
 62
    4
 10
727.862
 20
429.66013
 11
724.96425
 21
430.43661
  0
LINE
  8
2-8
  6
CONTINUOUS
 62
    4
 10
727.862
 20
429.66013
 11
724.96425
 21
428.88366
  0
LINE
  8
2-8
  6
CONTINUOUS
 62
    4
 10
727.862
 20
429.66013
 11
732.86196
 21
429.66013
  0
LINE
  8
2-8
  6
CONTINUOUS
 62
    4
 10
732.86196
 20
446.71858
 11
732.86196
 21
427.56012
  0
LINE
  8
2-8
  6
CONTINUOUS
 62
    4
 10
727.862
 20
429.66013
 11
730.75974
 21
430.43661
  0
LINE
  8
2-8
  6
CONTINUOUS
 62
    4
 10
727.862
 20
429.66013
 11
730.75974
 21
428.88366
  0
LINE
  8
2-8
  6
CONTINUOUS
 62
    4
 10
732.86196
 20
429.66013
 11
729.96422
 21
430.43661
  0
LINE
  8
2-8
  6
CONTINUOUS
 62
    4
 10
732.86196
 20
429.66013
 11
729.96422
 21
428.88366
  0
LINE
  8
2-8
  6
CONTINUOUS
 62
    4
 10
675.51452
 20
407.64708
 11
732.86196
 21
407.64708
  0
LINE
  8
2-8
  6
CONTINUOUS
 62
    4
 10
675.51452
 20
446.71858
 11
675.51452
 21
405.54707
  0
LINE
  8
2-8
  6
CONTINUOUS
 62
    4
 10
732.86196
 20
446.71858
 11
732.86196
 21
405.54707
  0
LINE
  8
2-8
  6
CONTINUOUS
 62
    4
 10
675.51452
 20
407.64708
 11
678.41226
 21
408.42356
  0
LINE
  8
2-8
  6
CONTINUOUS
 62
    4
 10
675.51452
 20
407.64708
 11
678.41226
 21
406.87061
  0
LINE
  8
2-8
  6
CONTINUOUS
 62
    4
 10
732.86196
 20
407.64708
 11
729.96422
 21
408.42356
  0
LINE
  8
2-8
  6
CONTINUOUS
 62
    4
 10
732.86196
 20
407.64708
 11
729.96422
 21
406.87061
  0
LINE
  8
2-5
  6
CENTER1
 62
    3
 10
669.29079
 20
443.28247
 11
667.08024
 21
450.51307
  0
LINE
  8
2-8
  6
CONTINUOUS
 62
    4
 10
662.86221
 20
433.46978
 11
668.86207
 21
433.46978
  0
LINE
  8
2-8
  6
CONTINUOUS
 62
    4
 10
662.86221
 20
444.68474
 11
662.86221
 21
431.36977
  0
LINE
  8
2-8
  6
CONTINUOUS
 62
    4
 10
668.86207
 20
444.68474
 11
668.86207
 21
431.36977
  0
LINE
  8
2-8
  6
CONTINUOUS
 62
    4
 10
662.86221
 20
433.46978
 11
665.75999
 21
434.24626
  0
LINE
  8
2-8
  6
CONTINUOUS
 62
    4
 10
662.86221
 20
433.46978
 11
665.75999
 21
432.69331
  0
LINE
  8
2-8
  6
CONTINUOUS
 62
    4
 10
668.86207
 20
433.46978
 11
665.96428
 21
434.24626
  0
LINE
  8
2-8
  6
CONTINUOUS
 62
    4
 10
668.86207
 20
433.46978
 11
665.96428
 21
432.69331
  0
LINE
  8
2-8
  6
CONTINUOUS
 62
    4
 10
648.891
 20
442.85033
 11
648.891
 21
446.71858
  0
LINE
  8
2-8
  6
CONTINUOUS
 62
    4
 10
662.86213
 20
442.85033
 11
646.79099
 21
442.85033
  0
LINE
  8
2-8
  6
CONTINUOUS
 62
    4
 10
662.86213
 20
446.71858
 11
646.79099
 21
446.71858
  0
LINE
  8
2-8
  6
CONTINUOUS
 62
    4
 10
648.891
 20
442.85033
 11
648.11453
 21
445.74812
  0
LINE
  8
2-8
  6
CONTINUOUS
 62
    4
 10
648.891
 20
442.85033
 11
649.66747
 21
445.74812
  0
LINE
  8
2-8
  6
CONTINUOUS
 62
    4
 10
648.891
 20
446.71858
 11
648.11453
 21
443.82079
  0
LINE
  8
2-8
  6
CONTINUOUS
 62
    4
 10
648.891
 20
446.71858
 11
649.66747
 21
443.82079
  0
LINE
  8
2-8
  6
CONTINUOUS
 62
    4
 10
648.891
 20
446.71858
 11
648.891
 21
450.71861
  0
LINE
  8
2-8
  6
CONTINUOUS
 62
    4
 10
662.86213
 20
450.71861
 11
646.79099
 21
450.71861
  0
LINE
  8
2-8
  6
CONTINUOUS
 62
    4
 10
648.891
 20
446.71858
 11
648.11453
 21
449.61636
  0
LINE
  8
2-8
  6
CONTINUOUS
 62
    4
 10
648.891
 20
446.71858
 11
649.66747
 21
449.61636
  0
LINE
  8
2-8
  6
CONTINUOUS
 62
    4
 10
648.891
 20
450.71861
 11
648.11453
 21
447.82082
  0
LINE
  8
2-8
  6
CONTINUOUS
 62
    4
 10
648.891
 20
450.71861
 11
649.66747
 21
447.82082
  0
LINE
  8
2-8
  6
CONTINUOUS
 62
    4
 10
648.891
 20
450.71861
 11
648.891
 21
455.71853
  0
LINE
  8
2-8
  6
CONTINUOUS
 62
    4
 10
662.86213
 20
455.71853
 11
646.79099
 21
455.71853
  0
LINE
  8
2-8
  6
CONTINUOUS
 62
    4
 10
648.891
 20
450.71861
 11
648.11453
 21
453.61639
  0
LINE
  8
2-8
  6
CONTINUOUS
 62
    4
 10
648.891
 20
450.71861
 11
649.66747
 21
453.61639
  0
LINE
  8
2-8
  6
CONTINUOUS
 62
    4
 10
648.891
 20
455.71853
 11
648.11453
 21
452.82075
  0
LINE
  8
2-8
  6
CONTINUOUS
 62
    4
 10
648.891
 20
455.71853
 11
649.66747
 21
452.82075
  0
LINE
  8
2-8
  6
CONTINUOUS
 62
    4
 10
204.48928
 20
165.71852
 11
204.48928
 21
289.59012
  0
LINE
  8
2-8
  6
CONTINUOUS
 62
    4
 10
161.57057
 20
165.71852
 11
206.58928
 21
165.71852
  0
LINE
  8
2-8
  6
CONTINUOUS
 62
    4
 10
161.57057
 20
289.59012
 11
206.58928
 21
289.59012
  0
LINE
  8
2-8
  6
CONTINUOUS
 62
    4
 10
204.48928
 20
165.71852
 11
203.71283
 21
168.6163
  0
LINE
  8
2-8
  6
CONTINUOUS
 62
    4
 10
204.48928
 20
165.71852
 11
205.26573
 21
168.6163
  0
LINE
  8
2-8
  6
CONTINUOUS
 62
    4
 10
204.48928
 20
289.59012
 11
203.71283
 21
286.69233
  0
LINE
  8
2-8
  6
CONTINUOUS
 62
    4
 10
204.48928
 20
289.59012
 11
205.26573
 21
286.69233
  0
LINE
  8
2-8
  6
CONTINUOUS
 62
    4
 10
138.54201
 20
165.7185
 11
138.54201
 21
290.2185
  0
LINE
  8
2-8
  6
CONTINUOUS
 62
    4
 10
138.54201
 20
165.7185
 11
140.64201
 21
165.7185
  0
LINE
  8
2-8
  6
CONTINUOUS
 62
    4
 10
138.54201
 20
290.2185
 11
140.64201
 21
290.2185
  0
LINE
  8
2-8
  6
CONTINUOUS
 62
    4
 10
138.54201
 20
165.7185
 11
137.76555
 21
168.61628
  0
LINE
  8
2-8
  6
CONTINUOUS
 62
    4
 10
138.54201
 20
165.7185
 11
139.31847
 21
168.61628
  0
LINE
  8
2-8
  6
CONTINUOUS
 62
    4
 10
138.54201
 20
290.2185
 11
137.76555
 21
287.32072
  0
LINE
  8
2-8
  6
CONTINUOUS
 62
    4
 10
138.54201
 20
290.2185
 11
139.31847
 21
287.32072
  0
LINE
  8
ADD_LINE
  6
DOT
 62
    7
 10
182.57058
 20
301.35974
 11
182.57058
 21
290.51911
  0
LINE
  8
2-7
  6
CONTINUOUS
 62
    7
 10
153.47059
 20
290.2185
 11
186.57057
 21
300.33819
  0
LINE
  8
2-1
  6
CONTINUOUS
 62
    7
 10
186.57057
 20
300.33819
 11
186.57057
 21
297.2334
  0
LINE
  8
2-1
  6
CENTER1
 62
    3
 10
183.55317
 20
292.79659
 11
180.99887
 21
301.15132
  0
LINE
  8
2-6
  6
CONTINUOUS
 62
    7
 10
176.57058
 20
294.1761
 11
675.51452
 21
446.71858
  0
LINE
  8
2-1
  6
CONTINUOUS
 62
    7
 10
176.57058
 20
294.1761
 11
176.57058
 21
258.71852
  0
LINE
  8
2-1
  6
CONTINUOUS
 62
    7
 10
167.57057
 20
258.71852
 11
176.57058
 21
258.71852
  0
LINE
  8
2-1
  6
CONTINUOUS
 62
    7
 10
167.57057
 20
258.71852
 11
167.57057
 21
242.71851
  0
LINE
  8
2-1
  6
CONTINUOUS
 62
    7
 10
103.24057
 20
242.71851
 11
167.57057
 21
242.71851
  0
LINE
  8
2-7
  6
CENTER1
 62
    3
 10
148.79126
 20
246.71852
 11
172.17656
 21
246.71852
  0
LINE
  8
INNER_PA
  6
PHANTOM2
 62
    3
 10
177.48276
 20
287.71866
 11
83.320176
 21
287.71866
  0
LINE
  8
2-5
  6
CONTINUOUS
 62
    4
 10
177.97056
 20
287.71866
 11
185.27303
 21
287.71866
  0
LINE
  8
2-6
  6
CONTINUOUS
 62
    6
 10
176.57058
 20
293.1304
 11
678.93483
 21
446.71858
  0
LINE
  8
ADD_LINE
  6
DOT
 62
    7
 10
176.57058
 20
293.65325
 11
678.78861
 21
447.19671
  0
LINE
  8
2-7
  6
DASHED1
 62
    7
 10
153.57058
 20
248.41853
 11
163.57057
 21
248.41853
  0
LINE
  8
2-7
  6
DASHED1
 62
    7
 10
153.57058
 20
245.01851
 11
163.57057
 21
245.01851
  0
LINE
  8
2-1
  6
DASHED1
 62
    7
 10
153.47058
 20
289.51865
 11
173.57058
 21
289.51865
  0
LINE
  8
2-1
  6
DASHED1
 62
    7
 10
153.47058
 20
285.91867
 11
173.57058
 21
285.91867
  0
LINE
  8
2-1
  6
CENTER1
 62
    3
 10
146.64281
 20
253.71852
 11
172.90972
 21
253.71852
  0
LINE
  8
2-1
  6
DASHED1
 62
    7
 10
151.57057
 20
255.21853
 11
167.57057
 21
255.21853
  0
LINE
  8
2-1
  6
DASHED1
 62
    7
 10
151.57057
 20
252.21851
 11
167.57057
 21
252.21851
  0
LINE
  8
2-1
  6
DASHED1
 62
    7
 10
177.48276
 20
282.71866
 11
161.57057
 21
282.71866
  0
LINE
  8
2-1
  6
DASHED1
 62
    7
 10
161.57057
 20
282.71866
 11
161.57057
 21
263.71853
  0
LINE
  8
2-1
  6
DASHED1
 62
    7
 10
161.57057
 20
263.71853
 11
176.57058
 21
263.71853
  0
LINE
  8
TAPER___
  6
PHANTOM2
 62
    3
 10
1.4808755
 20
284.46218
 11
369.16517
 21
284.46218
  0
LINE
  8
____
  6
PHANTOM2
 62
    3
 10
2.3310778
 20
279.07145
 11
698.73465
 21
491.98344
  0
LINE
  8
CATHODE_
  6
CONTINUOUS
 62
    7
 10
80.240586
 20
268.7186
 11
2.4767218
 21
268.7186
  0
LINE
  8
____
  6
CENTER2
 62
    3
 10
9.4476453
 20
165.71852
 11
727.91886
 21
165.71852
  0
LINE
  8
CATHODE_
  6
CONTINUOUS
 62
    7
 10
3.472568
 20
269.2185
 11
80.240586
 21
269.2185
  0
LINE
  8
CATHODE_
  6
CONTINUOUS
 62
    7
 10
80.240586
 20
248.21851
 11
6.4601066
 21
248.21851
  0
LINE
  8
CATHODE_
  6
CONTINUOUS
 62
    7
 10
6.4601066
 20
248.21851
 11
5.4642604
 21
248.21851
  0
LINE
  8
MID_CYLI
  6
CONTINUOUS
 62
    7
 10
636.86196
 20
459.71868
 11
875.95108
 21
459.71868
  0
LINE
  8
2-3
  6
CONTINUOUS
 62
    7
 10
687.86195
 20
455.71853
 11
875.95108
 21
455.71853
  0
LINE
  8
SHIELD_P
  6
CONTINUOUS
 62
    7
 10
675.66395
 20
445.71856
 11
874.76485
 21
445.71856
  0
LINE
  8
2-3
  6
CONTINUOUS
 62
    7
 10
678.93483
 20
446.71858
 11
875.95108
 21
446.71858
  0
LINE
  8
ADD_LINE
  6
DOT
 62
    7
 10
650.50884
 20
588.52518
 11
866.03096
 21
588.52518
  0
LINE
  8
ADD_LINE
  6
DOT
 62
    7
 10
654.45131
 20
602.98093
 11
654.45131
 21
510.98978
  0
LINE
  8
ADD_LINE
  6
DOT
 62
    7
 10
650.50884
 20
578.52517
 11
866.03096
 21
578.52517
  0
LINE
  8
ADD_LINE
  6
DOT
 62
    7
 10
650.50884
 20
568.52516
 11
866.03096
 21
568.52516
  0
LINE
  8
ADD_LINE
  6
DOT
 62
    7
 10
650.50884
 20
558.52515
 11
866.03096
 21
558.52515
  0
LINE
  8
ADD_LINE
  6
DOT
 62
    7
 10
650.50884
 20
548.52514
 11
866.03096
 21
548.52514
  0
LINE
  8
ADD_LINE
  6
DOT
 62
    7
 10
650.50884
 20
538.52512
 11
866.03096
 21
538.52512
  0
LINE
  8
ADD_LINE
  6
DOT
 62
    7
 10
650.50884
 20
528.52511
 11
866.03096
 21
528.52511
  0
LINE
  8
ADD_LINE
  6
DOT
 62
    7
 10
650.50884
 20
518.5251
 11
866.03096
 21
518.5251
  0
ARC
  8
17DEG_15
  6
CONTINUOUS
 62
    5
 10
78.596574
 20
262.96857
 40
0.05
 50
180
 51
270
  0
ARC
  8
17DEG_15
  6
CONTINUOUS
 62
    5
 10
107.84055
 20
264.91847
 40
0.4
 50
270
 51
0
  0
ARC
  8
17DEG_15
  6
CONTINUOUS
 62
    5
 10
107.84055
 20
262.51869
 40
0.4
 50
0
 51
90
  0
ARC
  8
17DEG_15
  6
CONTINUOUS
 62
    5
 10
78.596574
 20
264.46861
 40
0.05
 50
90
 51
180
  0
ARC
  8
17DEG_15
  6
CONTINUOUS
 62
    5
 10
78.596574
 20
252.96854
 40
0.05
 50
180
 51
270
  0
ARC
  8
17DEG_15
  6
CONTINUOUS
 62
    5
 10
107.84055
 20
254.91846
 40
0.4
 50
270
 51
0
  0
ARC
  8
17DEG_15
  6
CONTINUOUS
 62
    5
 10
107.84055
 20
252.51868
 40
0.4
 50
0
 51
90
  0
ARC
  8
17DEG_15
  6
CONTINUOUS
 62
    5
 10
78.596574
 20
254.46858
 40
0.05
 50
90
 51
180
  0
ARC
  8
17DEG_15
  6
CONTINUOUS
 62
    5
 10
78.596574
 20
257.96864
 40
0.05
 50
180
 51
270
  0
ARC
  8
17DEG_15
  6
CONTINUOUS
 62
    5
 10
107.84055
 20
259.91857
 40
0.4
 50
270
 51
0
  0
ARC
  8
17DEG_15
  6
CONTINUOUS
 62
    5
 10
107.84055
 20
257.51858
 40
0.4
 50
0
 51
90
  0
ARC
  8
17DEG_15
  6
CONTINUOUS
 62
    5
 10
78.596574
 20
259.46851
 40
0.05
 50
90
 51
180
  0
ARC
  8
17DEG_15
  6
CONTINUOUS
 62
    5
 10
78.596574
 20
273.46865
 40
0.05
 50
180
 51
270
  0
ARC
  8
17DEG_15
  6
CONTINUOUS
 62
    5
 10
107.84055
 20
275.41857
 40
0.4
 50
270
 51
0
  0
ARC
  8
17DEG_15
  6
CONTINUOUS
 62
    5
 10
107.84055
 20
273.01861
 40
0.4
 50
0
 51
90
  0
ARC
  8
17DEG_15
  6
CONTINUOUS
 62
    5
 10
78.596574
 20
274.96853
 40
0.05
 50
90
 51
180
  0
ARC
  8
17DEG_15
  6
CONTINUOUS
 62
    5
 10
78.596574
 20
278.46857
 40
0.05
 50
180
 51
270
  0
ARC
  8
17DEG_15
  6
CONTINUOUS
 62
    5
 10
107.84055
 20
280.4185
 40
0.4
 50
270
 51
0
  0
ARC
  8
17DEG_15
  6
CONTINUOUS
 62
    5
 10
107.84055
 20
278.01872
 40
0.4
 50
0
 51
90
  0
ARC
  8
17DEG_15
  6
CONTINUOUS
 62
    5
 10
78.596574
 20
279.96862
 40
0.05
 50
90
 51
180
  0
ARC
  8
17DEG_15
  6
CONTINUOUS
 62
    7
 10
88.742296
 20
302.46852
 40
0.05
 50
90
 51
180
  0
ARC
  8
17DEG_15
  6
CONTINUOUS
 62
    7
 10
88.742296
 20
300.96864
 40
0.05
 50
180
 51
270
  0
ARC
  8
17DEG_15
  6
CONTINUOUS
 62
    7
 10
145.2923
 20
300.5186
 40
0.4
 50
0
 51
90
  0
ARC
  8
17DEG_15
  6
CONTINUOUS
 62
    7
 10
145.2923
 20
302.91856
 40
0.4
 50
270
 51
0
  0
ARC
  8
17DEG_15
  6
CONTINUOUS
 62
    7
 10
140.25815
 20
318.34351
 40
0.05
 50
90
 51
180
  0
ARC
  8
17DEG_15
  6
CONTINUOUS
 62
    7
 10
140.25815
 20
316.84362
 40
0.05
 50
180
 51
270
  0
ARC
  8
17DEG_15
  6
CONTINUOUS
 62
    7
 10
196.80816
 20
316.39359
 40
0.4
 50
0
 51
90
  0
ARC
  8
17DEG_15
  6
CONTINUOUS
 62
    7
 10
196.80816
 20
318.79355
 40
0.4
 50
270
 51
0
  0
ARC
  8
17DEG_15
  6
CONTINUOUS
 62
    5
 10
142.21518
 20
308.96849
 40
0.05
 50
180
 51
270
  0
ARC
  8
17DEG_15
  6
CONTINUOUS
 62
    5
 10
171.45906
 20
310.91844
 40
0.4
 50
270
 51
0
  0
ARC
  8
17DEG_15
  6
CONTINUOUS
 62
    5
 10
171.45906
 20
308.51864
 40
0.4
 50
0
 51
90
  0
ARC
  8
17DEG_15
  6
CONTINUOUS
 62
    5
 10
142.21518
 20
310.46858
 40
0.05
 50
90
 51
180
  0
ARC
  8
17DEG_15
  6
CONTINUOUS
 62
    5
 10
89.881538
 20
292.9686
 40
0.05
 50
180
 51
270
  0
ARC
  8
17DEG_15
  6
CONTINUOUS
 62
    5
 10
119.12542
 20
294.91852
 40
0.4
 50
270
 51
0
  0
ARC
  8
17DEG_15
  6
CONTINUOUS
 62
    5
 10
119.12542
 20
292.51856
 40
0.4
 50
0
 51
90
  0
ARC
  8
17DEG_15
  6
CONTINUOUS
 62
    5
 10
89.881538
 20
294.46847
 40
0.05
 50
90
 51
180
  0
ARC
  8
17DEG_15
  6
CONTINUOUS
 62
    7
 10
585.9119
 20
454.4685
 40
0.05
 50
90
 51
180
  0
ARC
  8
17DEG_15
  6
CONTINUOUS
 62
    7
 10
585.9119
 20
452.96866
 40
0.05
 50
180
 51
270
  0
ARC
  8
17DEG_15
  6
CONTINUOUS
 62
    7
 10
642.46186
 20
452.51856
 40
0.4
 50
0
 51
90
  0
ARC
  8
17DEG_15
  6
CONTINUOUS
 62
    7
 10
642.46186
 20
454.91852
 40
0.4
 50
270
 51
0
  0
ARC
  8
17DEG_15
  6
CONTINUOUS
 62
    5
 10
195.36651
 20
324.71855
 40
0.05
 50
180
 51
270
  0
ARC
  8
17DEG_15
  6
CONTINUOUS
 62
    5
 10
224.61038
 20
326.6685
 40
0.4
 50
270
 51
0
  0
ARC
  8
17DEG_15
  6
CONTINUOUS
 62
    5
 10
224.61038
 20
324.2687
 40
0.4
 50
0
 51
90
  0
ARC
  8
17DEG_15
  6
CONTINUOUS
 62
    5
 10
195.36651
 20
326.21864
 40
0.05
 50
90
 51
180
  0
ARC
  8
17DEG_15
  6
CONTINUOUS
 62
    5
 10
254.24193
 20
342.7186
 40
0.05
 50
180
 51
270
  0
ARC
  8
17DEG_15
  6
CONTINUOUS
 62
    5
 10
283.4858
 20
344.66854
 40
0.4
 50
270
 51
0
  0
ARC
  8
17DEG_15
  6
CONTINUOUS
 62
    5
 10
283.4858
 20
342.26874
 40
0.4
 50
0
 51
90
  0
ARC
  8
17DEG_15
  6
CONTINUOUS
 62
    5
 10
254.24193
 20
344.21869
 40
0.05
 50
90
 51
180
  0
ARC
  8
17DEG_15
  6
CONTINUOUS
 62
    5
 10
305.75773
 20
358.96857
 40
0.05
 50
180
 51
270
  0
ARC
  8
17DEG_15
  6
CONTINUOUS
 62
    5
 10
335.00162
 20
360.91851
 40
0.4
 50
270
 51
0
  0
ARC
  8
17DEG_15
  6
CONTINUOUS
 62
    5
 10
335.00162
 20
358.51871
 40
0.4
 50
0
 51
90
  0
ARC
  8
17DEG_15
  6
CONTINUOUS
 62
    5
 10
305.75773
 20
360.46865
 40
0.05
 50
90
 51
180
  0
ARC
  8
17DEG_15
  6
CONTINUOUS
 62
    5
 10
355.63841
 20
374.71863
 40
0.05
 50
180
 51
270
  0
ARC
  8
17DEG_15
  6
CONTINUOUS
 62
    5
 10
384.88227
 20
376.66857
 40
0.4
 50
270
 51
0
  0
ARC
  8
17DEG_15
  6
CONTINUOUS
 62
    5
 10
384.88227
 20
374.26877
 40
0.4
 50
0
 51
90
  0
ARC
  8
17DEG_15
  6
CONTINUOUS
 62
    5
 10
355.63841
 20
376.21871
 40
0.05
 50
90
 51
180
  0
ARC
  8
17DEG_15
  6
CONTINUOUS
 62
    5
 10
404.70121
 20
389.71856
 40
0.05
 50
180
 51
270
  0
ARC
  8
17DEG_15
  6
CONTINUOUS
 62
    5
 10
433.94511
 20
391.66851
 40
0.4
 50
270
 51
0
  0
ARC
  8
17DEG_15
  6
CONTINUOUS
 62
    5
 10
433.94511
 20
389.26871
 40
0.4
 50
0
 51
90
  0
ARC
  8
17DEG_15
  6
CONTINUOUS
 62
    5
 10
404.70121
 20
391.21865
 40
0.05
 50
90
 51
180
  0
ARC
  8
17DEG_15
  6
CONTINUOUS
 62
    5
 10
456.21704
 20
404.96847
 40
0.05
 50
180
 51
270
  0
ARC
  8
17DEG_15
  6
CONTINUOUS
 62
    5
 10
485.46093
 20
406.91842
 40
0.4
 50
270
 51
0
  0
ARC
  8
17DEG_15
  6
CONTINUOUS
 62
    5
 10
485.46093
 20
404.51862
 40
0.4
 50
0
 51
90
  0
ARC
  8
17DEG_15
  6
CONTINUOUS
 62
    5
 10
456.21704
 20
406.46856
 40
0.05
 50
90
 51
180
  0
ARC
  8
17DEG_15
  6
CONTINUOUS
 62
    5
 10
508.5508
 20
420.96863
 40
0.05
 50
180
 51
270
  0
ARC
  8
17DEG_15
  6
CONTINUOUS
 62
    5
 10
537.79469
 20
422.91857
 40
0.4
 50
270
 51
0
  0
ARC
  8
17DEG_15
  6
CONTINUOUS
 62
    5
 10
537.79469
 20
420.51877
 40
0.4
 50
0
 51
90
  0
ARC
  8
17DEG_15
  6
CONTINUOUS
 62
    5
 10
508.5508
 20
422.46871
 40
0.05
 50
90
 51
180
  0
ARC
  8
17DEG_15
  6
CONTINUOUS
 62
    5
 10
560.88432
 20
436.96854
 40
0.05
 50
180
 51
270
  0
ARC
  8
17DEG_15
  6
CONTINUOUS
 62
    5
 10
590.12821
 20
438.91848
 40
0.4
 50
270
 51
0
  0
ARC
  8
17DEG_15
  6
CONTINUOUS
 62
    5
 10
590.12821
 20
436.51868
 40
0.4
 50
0
 51
90
  0
ARC
  8
17DEG_15
  6
CONTINUOUS
 62
    5
 10
560.88432
 20
438.46863
 40
0.05
 50
90
 51
180
  0
TEXT
  8
2-5
 10
181.67303
 20
217.71862
 40
6
 41
1
 50
90
  1
122.00
  0
TEXT
  8
2-5
 10
124.91083
 20
216.46855
 40
6
 41
1
 50
90
  1
119.50
  0
TEXT
  8
2-8
 10
154.07057
 20
302.71679
 40
6
 41
1
 50
0
  1
20.00
  0
TEXT
  8
2-8
 10
158.57057
 20
295.42818
 40
6
 41
1
 50
0
  1
6.00
  0
TEXT
  8
2-8
 10
154.07046
 20
270.30769
 40
6
 41
1
 50
0
  1
3.00
  0
TEXT
  8
2-8
 10
209.70828
 20
356.78943
 40
6
 41
1
 50
0
  1
50.00
  0
TEXT
  8
2-8
 10
229.70828
 20
296.92957
 40
6
 41
1
 50
0
  1
10.00
  0
TEXT
  8
2-8
 10
228.70831
 20
306.6648
 40
6
 41
1
 50
0
  1
5.00
  0
TEXT
  8
2-8
 10
265.20123
 20
301.93783
 40
6
 41
1
 50
90
  1
6.668
  0
TEXT
  8
2-8
 10
226.91742
 20
315.46846
 40
6
 41
1
 50
90
  1
5.00
  0
TEXT
  8
2-8
 10
671.36213
 20
474.81495
 40
6
 41
1
 50
0
  1
32.00
  0
TEXT
  8
2-8
 10
706.36205
 20
474.81495
 40
6
 41
1
 50
0
  1
38.00
  0
TEXT
  8
2-8
 10
697.86204
 20
431.16014
 40
6
 41
1
 50
0
  1
15.00
  0
TEXT
  8
2-8
 10
712.86202
 20
431.16014
 40
6
 41
1
 50
0
  1
15.00
  0
TEXT
  8
2-8
 10
733.97904
 20
430.67238
 40
6
 41
1
 50
0
  1
5.00
  0
TEXT
  8
2-8
 10
696.68825
 20
409.14709
 40
6
 41
1
 50
0
  1
57.35
  0
TEXT
  8
2-8
 10
659.86215
 20
434.96979
 40
6
 41
1
 50
0
  1
6.00
  0
TEXT
  8
2-8
 10
648.80634
 20
430.48197
 40
6
 41
1
 50
90
  1
3.87
  0
TEXT
  8
2-8
 10
646.68338
 20
443.21986
 40
6
 41
1
 50
90
  1
4.00
  0
TEXT
  8
2-8
 10
648.45253
 20
457.3731
 40
6
 41
1
 50
90
  1
5.00
  0
TEXT
  8
2-8
 10
202.98928
 20
217.15431
 40
6
 41
1
 50
90
  1
123.872
  0
TEXT
  8
2-8
 10
137.04202
 20
218.9685
 40
6
 41
1
 50
90
  1
124.50
  0
TEXT
  8
2-1
 10
684.86282
 20
168.18005
 40
9
 41
1
 50
0
  1
Beam Line
  0
TEXT
  8
2-1
 10
655.95132
 20
590.02518
 40
9
 41
1
 50
0
  1
Side View (17 degree side)
  0
TEXT
  8
2-1
 10
655.95132
 20
570.02516
 40
9
 41
1
 50
0
  1
Cone shield for inner part
  0
TEXT
  8
2-1
 10
655.95132
 20
520.02511
 40
9
 41
1
 50
0
  1
98/09/17  Nagoya-u.  Kenji Inami
  0
ENDSEC
  0
EOF
