  0
SECTION
  2
HEADER
  9
$EXTMIN
 10
0
 20
0
  9
$EXTMAX
 10
594
 20
420
  0
ENDSEC
  0
SECTION
  2
TABLES
  0
TABLE
  2
LTYPE
 70
     9
  0
LTYPE
  2
CONTINUOUS
 70
    64
  3
実線
 72
    65
 73
     0
 40
0.0
  0
LTYPE
  2
DASHED1
 70
    64
  3
--  --  --  --  --  --  --  --  
 72
    65
 73
     2
 40
2.5
 49
1.25
 49
-1.25
  0
LTYPE
  2
DASHED2
 70
    64
  3
----    ----    ----    ----    
 72
    65
 73
     2
 40
5.0
 49
2.5
 49
-2.5
  0
LTYPE
  2
DASHED3
 70
    64
  3
------  ------  ------  ------  
 72
    65
 73
     2
 40
5.0
 49
3.75
 49
-1.25
  0
LTYPE
  2
CENTER1
 70
    64
  3
----- - ----- - ----- - ----- - 
 72
    65
 73
     4
 40
10.0
 49
6.25
 49
-1.25
 49
1.25
 49
-1.25
  0
LTYPE
  2
CENTER2
 70
    64
  3
----------  --  ----------  --  
 72
    65
 73
     4
 40
20.0
 49
12.5
 49
-2.5
 49
2.5
 49
-2.5
  0
LTYPE
  2
PHANTOM1
 70
    64
  3
--- - - --- - - --- - - --- - - 
 72
    65
 73
     6
 40
10.0
 49
3.25
 49
-1.25
 49
1.25
 49
-1.25
 49
1.25
 49
-1.25
  0
LTYPE
  2
PHANTOM2
 70
    64
  3
--------  -  -  --------  -  -  
 72
    65
 73
     6
 40
20.0
 49
10.0
 49
-2.5
 49
1.25
 49
-2.5
 49
1.25
 49
-2.5
  0
LTYPE
  2
DOT
 70
    64
  3
-   -   -   -   -   -   -   -   
 72
    65
 73
     2
 40
2.5
 49
0.625
 49
-1.875
  0
ENDTAB
  0
TABLE
  2
STYLE
 70
    1
  0
STYLE
  2
STANDARD
 70
    64
 40
0.0
 41
1.0
 42
0.0
 50
0.0
 71
     0
  3
TXT
  4
BIGFONT
  0
ENDTAB
  0
TABLE
  2
LAYER
 70
   21
  0
LAYER
  2
17DEG_15
 70
   64
 62
    7
  6
CONTINUOUS
  0
LAYER
  2
_K_X__
 70
   64
 62
    7
  6
CONTINUOUS
  0
LAYER
  2
CATH_PAR
 70
   64
 62
    7
  6
CONTINUOUS
  0
LAYER
  2
OUTER_RI
 70
   64
 62
    7
  6
CONTINUOUS
  0
LAYER
  2
OUTER_RI
 70
   64
 62
    7
  6
CONTINUOUS
  0
LAYER
  2
INNER_RI
 70
   64
 62
    7
  6
CONTINUOUS
  0
LAYER
  2
TAPER___
 70
   64
 62
    7
  6
CONTINUOUS
  0
LAYER
  2
_L_W
 70
   64
 62
    7
  6
CONTINUOUS
  0
LAYER
  2
CONE_DIM
 70
   64
 62
    7
  6
CONTINUOUS
  0
LAYER
  2
MID_CYLI
 70
   64
 62
    7
  6
CONTINUOUS
  0
LAYER
  2
CATH_TER
 70
   64
 62
    7
  6
CONTINUOUS
  0
LAYER
  2
INNER_SH
 70
   64
 62
    7
  6
CONTINUOUS
  0
LAYER
  2
SHIELD_P
 70
   64
 62
    7
  6
CONTINUOUS
  0
LAYER
  2
SHIELD_B
 70
   64
 62
    7
  6
CONTINUOUS
  0
LAYER
  2
DIMENSIO
 70
   64
 62
    7
  6
CONTINUOUS
  0
LAYER
  2
BUL
 70
   64
 62
    7
  6
CONTINUOUS
  0
LAYER
  2
TF
 70
   64
 62
    7
  6
CONTINUOUS
  0
LAYER
  2
CATHODE_
 70
   64
 62
    7
  6
CONTINUOUS
  0
LAYER
  2
FEEDTHRO
 70
   64
 62
    7
  6
CONTINUOUS
  0
LAYER
  2
1-f
 70
   64
 62
    7
  6
CONTINUOUS
  0
LAYER
  2
ADD_LINE
 70
   64
 62
    7
  6
CONTINUOUS
  0
ENDTAB
  0
ENDSEC
  0
SECTION
  2
ENTITIES
  0
LINE
  8
INNER_RI
  6
CONTINUOUS
 62
    7
 10
536.32659
 20
83.468713
 11
536.32659
 21
87.468701
  0
LINE
  8
CONE_DIM
  6
CONTINUOUS
 62
    7
 10
384.88921
 20
178.71867
 11
384.88921
 21
169.21873
  0
LINE
  8
CONE_DIM
  6
CONTINUOUS
 62
    7
 10
249.35621
 20
256.96864
 11
235.49973
 21
256.96864
  0
LINE
  8
CONE_DIM
  6
CONTINUOUS
 62
    7
 10
249.35621
 20
256.96864
 11
249.35621
 21
248.96866
  0
LINE
  8
CONE_DIM
  6
CONTINUOUS
 62
    7
 10
235.49973
 20
264.96867
 11
235.49973
 21
256.96864
  0
LINE
  8
CONE_DIM
  6
CONTINUOUS
 62
    7
 10
263.21267
 20
248.96866
 11
249.35621
 21
248.96866
  0
LINE
  8
CONE_DIM
  6
CONTINUOUS
 62
    7
 10
342.88688
 20
202.96869
 11
342.88688
 21
194.96869
  0
LINE
  8
CONE_DIM
  6
CONTINUOUS
 62
    7
 10
277.06907
 20
240.96869
 11
263.21267
 21
240.96869
  0
LINE
  8
CONE_DIM
  6
CONTINUOUS
 62
    7
 10
429.48947
 20
152.96869
 11
416.06607
 21
152.96869
  0
LINE
  8
_K_X__
  6
CONTINUOUS
 62
    7
 10
458.32659
 20
84.968689
 11
367.83665
 21
84.968689
  0
LINE
  8
CONE_DIM
  6
CONTINUOUS
 62
    7
 10
370.16672
 20
187.21869
 11
370.16672
 21
178.71867
  0
LINE
  8
CONE_DIM
  6
CONTINUOUS
 62
    7
 10
384.88921
 20
178.71867
 11
370.16672
 21
178.71867
  0
LINE
  8
CONE_DIM
  6
CONTINUOUS
 62
    7
 10
356.74335
 20
194.96869
 11
342.88688
 21
194.96869
  0
LINE
  8
CONE_DIM
  6
CONTINUOUS
 62
    7
 10
356.74335
 20
194.96869
 11
356.74335
 21
187.21869
  0
LINE
  8
CONE_DIM
  6
CONTINUOUS
 62
    7
 10
370.16672
 20
187.21869
 11
356.74335
 21
187.21869
  0
LINE
  8
CONE_DIM
  6
CONTINUOUS
 62
    7
 10
416.06607
 20
160.7187
 11
401.34358
 21
160.7187
  0
LINE
  8
CONE_DIM
  6
CONTINUOUS
 62
    7
 10
401.34358
 20
169.21873
 11
384.88921
 21
169.21873
  0
LINE
  8
CONE_DIM
  6
CONTINUOUS
 62
    7
 10
401.34358
 20
169.21873
 11
401.34358
 21
160.7187
  0
LINE
  8
CONE_DIM
  6
CONTINUOUS
 62
    7
 10
416.06607
 20
160.7187
 11
416.06607
 21
152.96869
  0
LINE
  8
OUTER_RI
  6
CONTINUOUS
 62
    7
 10
486.32667
 20
108.46872
 11
491.32659
 21
108.46872
  0
LINE
  8
OUTER_RI
  6
CONTINUOUS
 62
    7
 10
477.3266
 20
106.21874
 11
491.32659
 21
106.21874
  0
LINE
  8
OUTER_RI
  6
CONTINUOUS
 62
    7
 10
486.32667
 20
110.21872
 11
486.32667
 21
107.96873
  0
LINE
  8
OUTER_RI
  6
CONTINUOUS
 62
    7
 10
486.32667
 20
110.21872
 11
477.3266
 21
110.21872
  0
LINE
  8
CONE_DIM
  6
CONTINUOUS
 62
    7
 10
429.48947
 20
144.96866
 11
443.34584
 21
144.96866
  0
LINE
  8
CONE_DIM
  6
CONTINUOUS
 62
    7
 10
429.48947
 20
152.96869
 11
429.48947
 21
144.96866
  0
LINE
  8
CONE_DIM
  6
CONTINUOUS
 62
    7
 10
316.47314
 20
218.21871
 11
316.47314
 21
210.71868
  0
LINE
  8
CONE_DIM
  6
CONTINUOUS
 62
    7
 10
329.46355
 20
210.71868
 11
329.46355
 21
202.96869
  0
LINE
  8
CONE_DIM
  6
CONTINUOUS
 62
    7
 10
342.88688
 20
202.96869
 11
329.46355
 21
202.96869
  0
LINE
  8
CONE_DIM
  6
CONTINUOUS
 62
    7
 10
303.48279
 20
225.71864
 11
303.48279
 21
218.21871
  0
LINE
  8
CONE_DIM
  6
CONTINUOUS
 62
    7
 10
316.47314
 20
218.21871
 11
303.48279
 21
218.21871
  0
LINE
  8
CONE_DIM
  6
CONTINUOUS
 62
    7
 10
329.46355
 20
210.71868
 11
316.47314
 21
210.71868
  0
LINE
  8
CONE_DIM
  6
CONTINUOUS
 62
    7
 10
290.49245
 20
233.21868
 11
290.49245
 21
225.71864
  0
LINE
  8
CONE_DIM
  6
CONTINUOUS
 62
    7
 10
303.48279
 20
225.71864
 11
290.49245
 21
225.71864
  0
LINE
  8
CONE_DIM
  6
CONTINUOUS
 62
    7
 10
277.06907
 20
240.96869
 11
277.06907
 21
233.21868
  0
LINE
  8
CONE_DIM
  6
CONTINUOUS
 62
    7
 10
290.49245
 20
233.21868
 11
277.06907
 21
233.21868
  0
LINE
  8
INNER_RI
  6
CONTINUOUS
 62
    7
 10
486.32667
 20
87.468701
 11
536.32659
 21
87.468701
  0
LINE
  8
INNER_RI
  6
CONTINUOUS
 62
    7
 10
486.32667
 20
87.468701
 11
486.32667
 21
88.468737
  0
LINE
  8
INNER_RI
  6
CONTINUOUS
 62
    7
 10
463.32665
 20
130.46868
 11
463.32665
 21
81.968685
  0
LINE
  8
INNER_RI
  6
CONTINUOUS
 62
    7
 10
468.32657
 20
120.96869
 11
479.3266
 21
120.96869
  0
LINE
  8
INNER_RI
  6
CONTINUOUS
 62
    7
 10
468.32657
 20
130.388
 11
468.32657
 21
120.96869
  0
LINE
  8
INNER_RI
  6
CONTINUOUS
 62
    7
 10
463.32665
 20
130.46868
 11
468.32657
 21
130.46868
  0
LINE
  8
INNER_RI
  6
CONTINUOUS
 62
    7
 10
486.32667
 20
107.96868
 11
486.32667
 21
108.46867
  0
LINE
  8
INNER_RI
  6
CONTINUOUS
 62
    7
 10
494.32664
 20
107.96868
 11
486.32667
 21
107.96868
  0
LINE
  8
INNER_RI
  6
CONTINUOUS
 62
    7
 10
756.07962
 20
108.46867
 11
486.32667
 21
108.46867
  0
LINE
  8
INNER_RI
  6
CONTINUOUS
 62
    7
 10
479.3266
 20
106.21869
 11
479.3266
 21
88.468685
  0
LINE
  8
INNER_RI
  6
CONTINUOUS
 62
    7
 10
471.32663
 20
88.468737
 11
471.32663
 21
81.968685
  0
LINE
  8
INNER_RI
  6
CONTINUOUS
 62
    7
 10
471.32663
 20
88.468737
 11
486.32667
 21
88.468737
  0
LINE
  8
INNER_RI
  6
CONTINUOUS
 62
    7
 10
479.3266
 20
120.96869
 11
479.3266
 21
110.21868
  0
LINE
  8
_L_W
  6
CONTINUOUS
 62
    5
 10
479.32664
 20
173.21587
 11
479.32664
 21
96.537426
  0
LINE
  8
INNER_RI
  6
CONTINUOUS
 62
    7
 10
471.32663
 20
81.968685
 11
463.32665
 21
81.968685
  0
LINE
  8
OUTER_RI
  6
CONTINUOUS
 62
    7
 10
477.3266
 20
110.21872
 11
477.3266
 21
106.21874
  0
LINE
  8
OUTER_RI
  6
CONTINUOUS
 62
    7
 10
491.32659
 20
107.96873
 11
491.32659
 21
106.21874
  0
LINE
  8
OUTER_RI
  6
CONTINUOUS
 62
    7
 10
486.32667
 20
107.96873
 11
491.32659
 21
107.96873
  0
LINE
  8
CONE_DIM
  6
CONTINUOUS
 62
    7
 10
221.64338
 20
272.96869
 11
207.78696
 21
272.96869
  0
LINE
  8
CATH_PAR
  6
CONTINUOUS
 62
    7
 10
463.32676
 20
122.9687
 11
463.32676
 21
128.96871
  0
LINE
  8
CATH_PAR
  6
CONTINUOUS
 62
    7
 10
471.32673
 20
87.468701
 11
471.32673
 21
84.468697
  0
LINE
  8
CONE_DIM
  6
CONTINUOUS
 62
    7
 10
468.32668
 20
130.46868
 11
468.32668
 21
124.28869
  0
LINE
  8
CONE_DIM
  6
CONTINUOUS
 62
    7
 10
468.32668
 20
124.28869
 11
479.32664
 21
123.71221
  0
LINE
  8
CONE_DIM
  6
CONTINUOUS
 62
    7
 10
479.32664
 20
129.96869
 11
479.32664
 21
123.71221
  0
LINE
  8
CONE_DIM
  6
CONTINUOUS
 62
    7
 10
443.34584
 20
136.96868
 11
457.20231
 21
136.96868
  0
LINE
  8
CONE_DIM
  6
CONTINUOUS
 62
    7
 10
457.20231
 20
136.96868
 11
457.20231
 21
130.46868
  0
LINE
  8
CONE_DIM
  6
CONTINUOUS
 62
    7
 10
443.34584
 20
144.96866
 11
443.34584
 21
136.96868
  0
LINE
  8
CONE_DIM
  6
CONTINUOUS
 62
    7
 10
457.20231
 20
130.46868
 11
468.32668
 21
130.46868
  0
LINE
  8
_K_X__
  6
CONTINUOUS
 62
    7
 10
463.32676
 20
89.968661
 11
458.32659
 21
89.968661
  0
LINE
  8
_K_X__
  6
CONTINUOUS
 62
    7
 10
458.32659
 20
89.968661
 11
458.32659
 21
84.968689
  0
LINE
  8
CONE_DIM
  6
CONTINUOUS
 62
    7
 10
193.53827
 20
298.96868
 11
189.03829
 21
298.96868
  0
LINE
  8
CONE_DIM
  6
CONTINUOUS
 62
    7
 10
188.03825
 20
297.96866
 11
188.03825
 21
294.96871
  0
LINE
  8
CONE_DIM
  6
CONTINUOUS
 62
    7
 10
207.78696
 20
280.96874
 11
193.9306
 21
280.96874
  0
LINE
  8
CONE_DIM
  6
CONTINUOUS
 62
    7
 10
193.9306
 20
288.96872
 11
193.9306
 21
280.96874
  0
LINE
  8
CONE_DIM
  6
CONTINUOUS
 62
    7
 10
207.78696
 20
280.96874
 11
207.78696
 21
272.96869
  0
LINE
  8
MID_CYLI
  6
CONTINUOUS
 62
    7
 10
177.03827
 20
295.96869
 11
177.03827
 21
294.96878
  0
LINE
  8
CONE_DIM
  6
CONTINUOUS
 62
    7
 10
180.53827
 20
294.96871
 11
180.53827
 21
290.96867
  0
LINE
  8
CONE_DIM
  6
CONTINUOUS
 62
    7
 10
176.03824
 20
288.96872
 11
176.03824
 21
294.96871
  0
LINE
  8
CONE_DIM
  6
CONTINUOUS
 62
    7
 10
183.53827
 20
290.96867
 11
183.53827
 21
294.96871
  0
LINE
  8
CONE_DIM
  6
CONTINUOUS
 62
    7
 10
188.03825
 20
294.96871
 11
176.03824
 21
294.96871
  0
LINE
  8
CONE_DIM
  6
CONTINUOUS
 62
    7
 10
180.53827
 20
290.96867
 11
183.53827
 21
290.96867
  0
LINE
  8
CONE_DIM
  6
PHANTOM2
 62
    3
 10
182.03825
 20
298.96868
 11
182.03825
 21
284.7653
  0
LINE
  8
MID_CYLI
  6
CONTINUOUS
 62
    7
 10
43.833028
 20
295.96869
 11
43.833028
 21
294.96878
  0
LINE
  8
MID_CYLI
  6
CONTINUOUS
 62
    7
 10
32.833048
 20
298.96868
 11
188.03836
 21
298.96868
  0
LINE
  8
MID_CYLI
  6
CONTINUOUS
 62
    7
 10
43.833028
 20
294.96878
 11
32.833048
 21
294.96878
  0
LINE
  8
MID_CYLI
  6
CONTINUOUS
 62
    7
 10
32.833048
 20
294.96878
 11
32.833048
 21
298.96868
  0
LINE
  8
MID_CYLI
  6
CONTINUOUS
 62
    7
 10
43.833028
 20
295.96869
 11
177.03827
 21
295.96869
  0
LINE
  8
MID_CYLI
  6
CONTINUOUS
 62
    7
 10
177.03827
 20
294.96878
 11
188.03836
 21
294.96878
  0
LINE
  8
CONE_DIM
  6
CONTINUOUS
 62
    7
 10
193.9306
 20
288.96872
 11
176.03824
 21
288.96872
  0
LINE
  8
INNER_RI
  6
CONTINUOUS
 62
    7
 10
471.32663
 20
83.468713
 11
536.32659
 21
83.468713
  0
LINE
  8
OUTER_RI
  6
CONTINUOUS
 62
    7
 10
484.32663
 20
83.468713
 11
584.32669
 21
83.468713
  0
LINE
  8
OUTER_RI
  6
PHANTOM2
 62
    3
 10
735.83308
 20
4.9687211
 11
50.38426
 21
400.71272
  0
LINE
  8
_L_W
  6
CONTINUOUS
 62
    5
 10
58.050646
 20
4.9687211
 11
647.01324
 21
4.9687211
  0
LINE
  8
OUTER_RI
  6
CENTER2
 62
    3
 10
735.83308
 20
4.9687211
 11
136.48654
 21
4.9687211
  0
LINE
  8
CONE_DIM
  6
CONTINUOUS
 62
    7
 10
235.49973
 20
264.96867
 11
221.64338
 21
264.96867
  0
LINE
  8
CONE_DIM
  6
CONTINUOUS
 62
    7
 10
479.32664
 20
129.96869
 11
193.53827
 21
294.96871
  0
LINE
  8
CONE_DIM
  6
CONTINUOUS
 62
    7
 10
221.64338
 20
272.96869
 11
221.64338
 21
264.96867
  0
LINE
  8
MID_CYLI
  6
CONTINUOUS
 62
    7
 10
188.03836
 20
294.96878
 11
188.03836
 21
298.96868
  0
LINE
  8
CONE_DIM
  6
CONTINUOUS
 62
    7
 10
193.53827
 20
294.96871
 11
193.53827
 21
298.96868
  0
LINE
  8
CONE_DIM
  6
CONTINUOUS
 62
    7
 10
189.03829
 20
298.96868
 11
189.03829
 21
297.96866
  0
LINE
  8
CONE_DIM
  6
CONTINUOUS
 62
    7
 10
189.03829
 20
297.96866
 11
188.03825
 21
297.96866
  0
LINE
  8
17DEG_15
  6
CONTINUOUS
 62
    5
 10
216.64336
 20
269.4687
 11
199.64342
 21
269.4687
  0
LINE
  8
17DEG_15
  6
CONTINUOUS
 62
    5
 10
199.64342
 20
268.46866
 11
216.64336
 21
268.46866
  0
LINE
  8
17DEG_15
  6
CONTINUOUS
 62
    5
 10
199.64342
 20
269.4687
 11
199.64342
 21
268.46866
  0
LINE
  8
17DEG_15
  6
CONTINUOUS
 62
    5
 10
216.64336
 20
270.96873
 11
216.64336
 21
266.96874
  0
LINE
  8
17DEG_15
  6
CONTINUOUS
 62
    5
 10
241.64344
 20
270.51878
 11
231.73006
 21
270.51878
  0
LINE
  8
17DEG_15
  6
CONTINUOUS
 62
    5
 10
231.64343
 20
270.56875
 11
231.73006
 21
270.51878
  0
LINE
  8
17DEG_15
  6
CONTINUOUS
 62
    5
 10
231.64343
 20
270.56875
 11
221.64338
 21
270.56875
  0
LINE
  8
17DEG_15
  6
CONTINUOUS
 62
    5
 10
231.64343
 20
267.3688
 11
231.73006
 21
267.41881
  0
LINE
  8
17DEG_15
  6
CONTINUOUS
 62
    5
 10
221.64338
 20
267.3688
 11
231.64343
 21
267.3688
  0
LINE
  8
17DEG_15
  6
DASHED1
 62
    5
 10
216.64336
 20
266.96874
 11
219.64336
 21
266.96874
  0
LINE
  8
17DEG_15
  6
DASHED1
 62
    5
 10
241.64344
 20
270.51878
 11
241.64344
 21
267.41881
  0
LINE
  8
17DEG_15
  6
CONTINUOUS
 62
    5
 10
217.04346
 20
269.76876
 11
217.04346
 21
268.16879
  0
LINE
  8
17DEG_15
  6
CONTINUOUS
 62
    5
 10
221.64338
 20
270.96873
 11
216.64336
 21
270.96873
  0
LINE
  8
17DEG_15
  6
CONTINUOUS
 62
    5
 10
216.64336
 20
266.96874
 11
221.64338
 21
266.96874
  0
LINE
  8
17DEG_15
  6
CONTINUOUS
 62
    5
 10
221.64338
 20
270.56875
 11
221.64338
 21
270.96873
  0
LINE
  8
17DEG_15
  6
CONTINUOUS
 62
    5
 10
221.64338
 20
266.96874
 11
221.64338
 21
267.3688
  0
LINE
  8
17DEG_15
  6
CONTINUOUS
 62
    5
 10
237.68676
 20
268.56876
 11
241.64344
 21
267.76878
  0
LINE
  8
17DEG_15
  6
CONTINUOUS
 62
    5
 10
236.64345
 20
268.56876
 11
237.68676
 21
268.56876
  0
LINE
  8
17DEG_15
  6
CONTINUOUS
 62
    5
 10
237.68676
 20
269.36875
 11
241.64344
 21
270.16879
  0
LINE
  8
17DEG_15
  6
CONTINUOUS
 62
    5
 10
236.64345
 20
269.36875
 11
237.68676
 21
269.36875
  0
LINE
  8
17DEG_15
  6
CONTINUOUS
 62
    5
 10
217.04346
 20
268.16879
 11
236.59345
 21
268.16879
  0
LINE
  8
17DEG_15
  6
CONTINUOUS
 62
    5
 10
236.64345
 20
268.21874
 11
236.64345
 21
268.56876
  0
LINE
  8
17DEG_15
  6
CONTINUOUS
 62
    5
 10
236.59345
 20
269.76876
 11
217.04346
 21
269.76876
  0
LINE
  8
17DEG_15
  6
CONTINUOUS
 62
    5
 10
236.64345
 20
269.36875
 11
236.64345
 21
269.71874
  0
LINE
  8
17DEG_15
  6
CONTINUOUS
 62
    5
 10
231.73006
 20
267.41881
 11
241.64344
 21
267.41881
  0
LINE
  8
17DEG_15
  6
CONTINUOUS
 62
    7
 10
221.64338
 20
270.56875
 11
221.64338
 21
267.3688
  0
LINE
  8
17DEG_15
  6
CONTINUOUS
 62
    5
 10
244.35628
 20
253.5843
 11
227.35624
 21
253.5843
  0
LINE
  8
17DEG_15
  6
CONTINUOUS
 62
    5
 10
227.35624
 20
252.58437
 11
244.35628
 21
252.58437
  0
LINE
  8
17DEG_15
  6
CONTINUOUS
 62
    5
 10
227.35624
 20
253.5843
 11
227.35624
 21
252.58437
  0
LINE
  8
17DEG_15
  6
CONTINUOUS
 62
    5
 10
244.35628
 20
255.08433
 11
244.35628
 21
251.08434
  0
LINE
  8
17DEG_15
  6
CONTINUOUS
 62
    5
 10
269.35621
 20
254.63434
 11
259.44286
 21
254.63434
  0
LINE
  8
17DEG_15
  6
CONTINUOUS
 62
    5
 10
259.35628
 20
254.68432
 11
259.44286
 21
254.63434
  0
LINE
  8
17DEG_15
  6
CONTINUOUS
 62
    5
 10
259.35628
 20
254.68432
 11
249.3563
 21
254.68432
  0
LINE
  8
17DEG_15
  6
CONTINUOUS
 62
    5
 10
259.35628
 20
251.48432
 11
259.44286
 21
251.53429
  0
LINE
  8
17DEG_15
  6
CONTINUOUS
 62
    5
 10
249.3563
 20
251.48432
 11
259.35628
 21
251.48432
  0
LINE
  8
17DEG_15
  6
DASHED1
 62
    5
 10
244.35628
 20
251.08434
 11
247.35626
 21
251.08434
  0
LINE
  8
17DEG_15
  6
DASHED1
 62
    5
 10
269.35621
 20
254.63434
 11
269.35621
 21
251.53429
  0
LINE
  8
17DEG_15
  6
CONTINUOUS
 62
    5
 10
244.75625
 20
253.88433
 11
244.75625
 21
252.2843
  0
LINE
  8
17DEG_15
  6
CONTINUOUS
 62
    5
 10
249.3563
 20
255.08433
 11
244.35628
 21
255.08433
  0
LINE
  8
17DEG_15
  6
CONTINUOUS
 62
    5
 10
244.35628
 20
251.08434
 11
249.3563
 21
251.08434
  0
LINE
  8
17DEG_15
  6
CONTINUOUS
 62
    5
 10
249.3563
 20
254.68432
 11
249.3563
 21
255.08433
  0
LINE
  8
17DEG_15
  6
CONTINUOUS
 62
    5
 10
249.3563
 20
251.08434
 11
249.3563
 21
251.48432
  0
LINE
  8
17DEG_15
  6
CONTINUOUS
 62
    5
 10
265.39952
 20
252.68437
 11
269.35621
 21
251.88438
  0
LINE
  8
17DEG_15
  6
CONTINUOUS
 62
    5
 10
264.3563
 20
252.68437
 11
265.39952
 21
252.68437
  0
LINE
  8
17DEG_15
  6
CONTINUOUS
 62
    5
 10
265.39952
 20
253.48435
 11
269.35621
 21
254.28434
  0
LINE
  8
17DEG_15
  6
CONTINUOUS
 62
    5
 10
264.3563
 20
253.48435
 11
265.39952
 21
253.48435
  0
LINE
  8
17DEG_15
  6
CONTINUOUS
 62
    5
 10
244.75625
 20
252.2843
 11
264.30623
 21
252.2843
  0
LINE
  8
17DEG_15
  6
CONTINUOUS
 62
    5
 10
264.3563
 20
252.33428
 11
264.3563
 21
252.68437
  0
LINE
  8
17DEG_15
  6
CONTINUOUS
 62
    5
 10
264.30623
 20
253.88433
 11
244.75625
 21
253.88433
  0
LINE
  8
17DEG_15
  6
CONTINUOUS
 62
    5
 10
264.3563
 20
253.48435
 11
264.3563
 21
253.8343
  0
LINE
  8
17DEG_15
  6
CONTINUOUS
 62
    5
 10
259.44286
 20
251.53429
 11
269.35621
 21
251.53429
  0
LINE
  8
17DEG_15
  6
CONTINUOUS
 62
    7
 10
249.3563
 20
254.68432
 11
249.3563
 21
251.48432
  0
LINE
  8
17DEG_15
  6
CONTINUOUS
 62
    5
 10
235.49973
 20
258.96871
 11
235.49973
 21
259.3687
  0
LINE
  8
17DEG_15
  6
CONTINUOUS
 62
    5
 10
235.49973
 20
262.5687
 11
235.49973
 21
262.9687
  0
LINE
  8
17DEG_15
  6
CONTINUOUS
 62
    5
 10
230.49972
 20
258.96871
 11
235.49973
 21
258.96871
  0
LINE
  8
17DEG_15
  6
CONTINUOUS
 62
    5
 10
235.49973
 20
262.9687
 11
230.49972
 21
262.9687
  0
LINE
  8
17DEG_15
  6
CONTINUOUS
 62
    5
 10
230.49972
 20
262.9687
 11
230.49972
 21
258.96871
  0
LINE
  8
17DEG_15
  6
CONTINUOUS
 62
    5
 10
230.89984
 20
261.76872
 11
230.89984
 21
260.16869
  0
LINE
  8
17DEG_15
  6
CONTINUOUS
 62
    5
 10
257.49979
 20
262.5687
 11
257.58642
 21
262.51875
  0
LINE
  8
17DEG_15
  6
CONTINUOUS
 62
    5
 10
257.49979
 20
262.5687
 11
235.49973
 21
262.5687
  0
LINE
  8
17DEG_15
  6
CONTINUOUS
 62
    5
 10
257.49979
 20
259.3687
 11
257.58642
 21
259.41873
  0
LINE
  8
17DEG_15
  6
CONTINUOUS
 62
    5
 10
235.49973
 20
259.3687
 11
257.49979
 21
259.3687
  0
LINE
  8
17DEG_15
  6
CONTINUOUS
 62
    5
 10
257.58642
 20
259.41873
 11
267.49982
 21
259.41873
  0
LINE
  8
17DEG_15
  6
CONTINUOUS
 62
    5
 10
267.49982
 20
262.51875
 11
257.58642
 21
262.51875
  0
LINE
  8
17DEG_15
  6
CONTINUOUS
 62
    5
 10
267.49982
 20
262.51875
 11
267.49982
 21
261.91771
  0
LINE
  8
17DEG_15
  6
CONTINUOUS
 62
    5
 10
267.49982
 20
260.02911
 11
267.49982
 21
259.41873
  0
LINE
  8
17DEG_15
  6
CONTINUOUS
 62
    5
 10
261.11445
 20
261.38337
 11
267.49982
 21
261.91771
  0
LINE
  8
17DEG_15
  6
CONTINUOUS
 62
    5
 10
261.11445
 20
260.58338
 11
267.49982
 21
260.02911
  0
LINE
  8
17DEG_15
  6
DASHED1
 62
    5
 10
230.49972
 20
258.96871
 11
233.49978
 21
258.96871
  0
LINE
  8
17DEG_15
  6
CONTINUOUS
 62
    5
 10
260.19373
 20
261.36872
 11
261.11445
 21
261.38337
  0
LINE
  8
17DEG_15
  6
CONTINUOUS
 62
    5
 10
260.19373
 20
260.56874
 11
261.11445
 21
260.58338
  0
LINE
  8
17DEG_15
  6
CONTINUOUS
 62
    5
 10
260.14376
 20
261.76872
 11
230.89984
 21
261.76872
  0
LINE
  8
17DEG_15
  6
CONTINUOUS
 62
    5
 10
260.19373
 20
261.36872
 11
260.19373
 21
261.71869
  0
LINE
  8
17DEG_15
  6
CONTINUOUS
 62
    5
 10
260.19373
 20
260.21866
 11
260.19373
 21
260.56874
  0
LINE
  8
17DEG_15
  6
CONTINUOUS
 62
    5
 10
230.89984
 20
260.16869
 11
260.14376
 21
260.16869
  0
LINE
  8
17DEG_15
  6
CONTINUOUS
 62
    7
 10
235.49973
 20
262.5687
 11
235.49973
 21
259.3687
  0
LINE
  8
17DEG_15
  6
CONTINUOUS
 62
    5
 10
230.49972
 20
261.46869
 11
213.49984
 21
261.46869
  0
LINE
  8
17DEG_15
  6
CONTINUOUS
 62
    5
 10
213.49984
 20
260.46874
 11
230.49972
 21
260.46874
  0
LINE
  8
17DEG_15
  6
CONTINUOUS
 62
    5
 10
213.49984
 20
261.46869
 11
213.49984
 21
260.46874
  0
LINE
  8
17DEG_15
  6
CONTINUOUS
 62
    5
 10
207.78702
 20
274.96871
 11
207.78702
 21
275.36873
  0
LINE
  8
17DEG_15
  6
CONTINUOUS
 62
    5
 10
207.78702
 20
278.56878
 11
207.78702
 21
278.96875
  0
LINE
  8
17DEG_15
  6
CONTINUOUS
 62
    5
 10
202.78699
 20
274.96871
 11
207.78702
 21
274.96871
  0
LINE
  8
17DEG_15
  6
CONTINUOUS
 62
    5
 10
207.78702
 20
278.96875
 11
202.78699
 21
278.96875
  0
LINE
  8
17DEG_15
  6
CONTINUOUS
 62
    5
 10
202.78699
 20
278.96875
 11
202.78699
 21
274.96871
  0
LINE
  8
17DEG_15
  6
CONTINUOUS
 62
    5
 10
203.18699
 20
277.76879
 11
203.18699
 21
276.16882
  0
LINE
  8
17DEG_15
  6
CONTINUOUS
 62
    5
 10
229.78705
 20
278.56878
 11
229.87361
 21
278.51881
  0
LINE
  8
17DEG_15
  6
CONTINUOUS
 62
    5
 10
229.78705
 20
278.56878
 11
207.78702
 21
278.56878
  0
LINE
  8
17DEG_15
  6
CONTINUOUS
 62
    5
 10
229.78705
 20
275.36873
 11
229.87361
 21
275.4188
  0
LINE
  8
17DEG_15
  6
CONTINUOUS
 62
    5
 10
207.78702
 20
275.36873
 11
229.78705
 21
275.36873
  0
LINE
  8
17DEG_15
  6
CONTINUOUS
 62
    5
 10
229.87361
 20
275.4188
 11
239.78704
 21
275.4188
  0
LINE
  8
17DEG_15
  6
CONTINUOUS
 62
    5
 10
239.78704
 20
278.51881
 11
229.87361
 21
278.51881
  0
LINE
  8
17DEG_15
  6
CONTINUOUS
 62
    5
 10
239.78704
 20
278.51881
 11
239.78704
 21
277.91771
  0
LINE
  8
17DEG_15
  6
CONTINUOUS
 62
    5
 10
239.78704
 20
276.02917
 11
239.78704
 21
275.4188
  0
LINE
  8
17DEG_15
  6
CONTINUOUS
 62
    5
 10
233.40163
 20
277.38337
 11
239.78704
 21
277.91771
  0
LINE
  8
17DEG_15
  6
CONTINUOUS
 62
    5
 10
233.40163
 20
276.58339
 11
239.78704
 21
276.02917
  0
LINE
  8
17DEG_15
  6
DASHED1
 62
    5
 10
202.78699
 20
274.96871
 11
205.787
 21
274.96871
  0
LINE
  8
17DEG_15
  6
CONTINUOUS
 62
    5
 10
232.48098
 20
277.36878
 11
233.40163
 21
277.38337
  0
LINE
  8
17DEG_15
  6
CONTINUOUS
 62
    5
 10
232.48098
 20
276.56869
 11
233.40163
 21
276.58339
  0
LINE
  8
17DEG_15
  6
CONTINUOUS
 62
    5
 10
232.43092
 20
277.76879
 11
203.18699
 21
277.76879
  0
LINE
  8
17DEG_15
  6
CONTINUOUS
 62
    5
 10
232.48098
 20
277.36878
 11
232.48098
 21
277.71871
  0
LINE
  8
17DEG_15
  6
CONTINUOUS
 62
    5
 10
232.48098
 20
276.21867
 11
232.48098
 21
276.56869
  0
LINE
  8
17DEG_15
  6
CONTINUOUS
 62
    5
 10
203.18699
 20
276.16882
 11
232.43092
 21
276.16882
  0
LINE
  8
17DEG_15
  6
CONTINUOUS
 62
    7
 10
207.78702
 20
278.56878
 11
207.78702
 21
275.36873
  0
LINE
  8
17DEG_15
  6
CONTINUOUS
 62
    5
 10
202.78699
 20
277.46873
 11
185.78695
 21
277.46873
  0
LINE
  8
17DEG_15
  6
CONTINUOUS
 62
    5
 10
185.78695
 20
276.46869
 11
202.78699
 21
276.46869
  0
LINE
  8
17DEG_15
  6
CONTINUOUS
 62
    5
 10
185.78695
 20
277.46873
 11
185.78695
 21
276.46869
  0
LINE
  8
17DEG_15
  6
CONTINUOUS
 62
    5
 10
463.32676
 20
95.96873
 11
463.32676
 21
96.368767
  0
LINE
  8
17DEG_15
  6
CONTINUOUS
 62
    5
 10
463.32676
 20
99.568768
 11
463.32676
 21
99.968709
  0
LINE
  8
17DEG_15
  6
CONTINUOUS
 62
    5
 10
458.3267
 20
95.96873
 11
463.32676
 21
95.96873
  0
LINE
  8
17DEG_15
  6
CONTINUOUS
 62
    5
 10
463.32676
 20
99.968709
 11
458.3267
 21
99.968709
  0
LINE
  8
17DEG_15
  6
CONTINUOUS
 62
    5
 10
458.3267
 20
99.968709
 11
458.3267
 21
95.96873
  0
LINE
  8
17DEG_15
  6
CONTINUOUS
 62
    5
 10
458.72683
 20
98.768729
 11
458.72683
 21
97.168754
  0
LINE
  8
17DEG_15
  6
CONTINUOUS
 62
    5
 10
485.32668
 20
99.568768
 11
485.4133
 21
99.518795
  0
LINE
  8
17DEG_15
  6
CONTINUOUS
 62
    5
 10
485.32668
 20
99.568768
 11
463.32676
 21
99.568768
  0
LINE
  8
17DEG_15
  6
CONTINUOUS
 62
    5
 10
485.32668
 20
96.368767
 11
485.4133
 21
96.41874
  0
LINE
  8
17DEG_15
  6
CONTINUOUS
 62
    5
 10
463.32676
 20
96.368767
 11
485.32668
 21
96.368767
  0
LINE
  8
17DEG_15
  6
CONTINUOUS
 62
    5
 10
485.4133
 20
96.41874
 11
495.32673
 21
96.41874
  0
LINE
  8
17DEG_15
  6
CONTINUOUS
 62
    5
 10
495.32673
 20
99.518795
 11
485.4133
 21
99.518795
  0
LINE
  8
17DEG_15
  6
CONTINUOUS
 62
    5
 10
495.32673
 20
99.518795
 11
495.32673
 21
98.917703
  0
LINE
  8
17DEG_15
  6
CONTINUOUS
 62
    5
 10
495.32673
 20
97.029124
 11
495.32673
 21
96.41874
  0
LINE
  8
17DEG_15
  6
CONTINUOUS
 62
    5
 10
488.94132
 20
98.383381
 11
495.32673
 21
98.917703
  0
LINE
  8
17DEG_15
  6
CONTINUOUS
 62
    5
 10
488.94132
 20
97.583393
 11
495.32673
 21
97.029124
  0
LINE
  8
17DEG_15
  6
DASHED1
 62
    5
 10
458.3267
 20
95.96873
 11
461.32665
 21
95.96873
  0
LINE
  8
17DEG_15
  6
CONTINUOUS
 62
    5
 10
488.0206
 20
98.368735
 11
488.94132
 21
98.383381
  0
LINE
  8
17DEG_15
  6
CONTINUOUS
 62
    5
 10
488.0206
 20
97.568748
 11
488.94132
 21
97.583393
  0
LINE
  8
17DEG_15
  6
CONTINUOUS
 62
    5
 10
487.97059
 20
98.768729
 11
458.72683
 21
98.768729
  0
LINE
  8
17DEG_15
  6
CONTINUOUS
 62
    5
 10
488.0206
 20
98.368735
 11
488.0206
 21
98.718703
  0
LINE
  8
17DEG_15
  6
CONTINUOUS
 62
    5
 10
488.0206
 20
97.218727
 11
488.0206
 21
97.568748
  0
LINE
  8
17DEG_15
  6
CONTINUOUS
 62
    5
 10
458.72683
 20
97.168754
 11
487.97059
 21
97.168754
  0
LINE
  8
17DEG_15
  6
CONTINUOUS
 62
    7
 10
463.32676
 20
99.568768
 11
463.32676
 21
96.368767
  0
LINE
  8
17DEG_15
  6
CONTINUOUS
 62
    5
 10
463.32676
 20
116.4687
 11
463.32676
 21
116.86869
  0
LINE
  8
17DEG_15
  6
CONTINUOUS
 62
    5
 10
463.32676
 20
120.06875
 11
463.32676
 21
120.46869
  0
LINE
  8
17DEG_15
  6
CONTINUOUS
 62
    5
 10
458.3267
 20
116.4687
 11
463.32676
 21
116.4687
  0
LINE
  8
17DEG_15
  6
CONTINUOUS
 62
    5
 10
463.32676
 20
120.46869
 11
458.3267
 21
120.46869
  0
LINE
  8
17DEG_15
  6
CONTINUOUS
 62
    5
 10
458.3267
 20
120.46869
 11
458.3267
 21
116.4687
  0
LINE
  8
17DEG_15
  6
CONTINUOUS
 62
    5
 10
458.72683
 20
119.26876
 11
458.72683
 21
117.66873
  0
LINE
  8
17DEG_15
  6
CONTINUOUS
 62
    5
 10
485.32668
 20
120.06875
 11
485.4133
 21
120.01877
  0
LINE
  8
17DEG_15
  6
CONTINUOUS
 62
    5
 10
485.32668
 20
120.06875
 11
463.32676
 21
120.06875
  0
LINE
  8
17DEG_15
  6
CONTINUOUS
 62
    5
 10
485.32668
 20
116.86869
 11
485.4133
 21
116.91872
  0
LINE
  8
17DEG_15
  6
CONTINUOUS
 62
    5
 10
463.32676
 20
116.86869
 11
485.32668
 21
116.86869
  0
LINE
  8
17DEG_15
  6
CONTINUOUS
 62
    5
 10
485.4133
 20
116.91872
 11
495.32673
 21
116.91872
  0
LINE
  8
17DEG_15
  6
CONTINUOUS
 62
    5
 10
495.32673
 20
120.01877
 11
485.4133
 21
120.01877
  0
LINE
  8
17DEG_15
  6
CONTINUOUS
 62
    5
 10
495.32673
 20
120.01877
 11
495.32673
 21
119.41768
  0
LINE
  8
17DEG_15
  6
CONTINUOUS
 62
    5
 10
495.32673
 20
117.52916
 11
495.32673
 21
116.91872
  0
LINE
  8
17DEG_15
  6
CONTINUOUS
 62
    5
 10
488.94132
 20
118.88337
 11
495.32673
 21
119.41768
  0
LINE
  8
17DEG_15
  6
CONTINUOUS
 62
    5
 10
488.94132
 20
118.08343
 11
495.32673
 21
117.52916
  0
LINE
  8
17DEG_15
  6
DASHED1
 62
    5
 10
458.3267
 20
116.4687
 11
461.32665
 21
116.4687
  0
LINE
  8
17DEG_15
  6
CONTINUOUS
 62
    5
 10
488.0206
 20
118.86877
 11
488.94132
 21
118.88337
  0
LINE
  8
17DEG_15
  6
CONTINUOUS
 62
    5
 10
488.0206
 20
118.06878
 11
488.94132
 21
118.08343
  0
LINE
  8
17DEG_15
  6
CONTINUOUS
 62
    5
 10
487.97059
 20
119.26876
 11
458.72683
 21
119.26876
  0
LINE
  8
17DEG_15
  6
CONTINUOUS
 62
    5
 10
488.0206
 20
118.86877
 11
488.0206
 21
119.21868
  0
LINE
  8
17DEG_15
  6
CONTINUOUS
 62
    5
 10
488.0206
 20
117.71871
 11
488.0206
 21
118.06878
  0
LINE
  8
17DEG_15
  6
CONTINUOUS
 62
    5
 10
458.72683
 20
117.66873
 11
487.97059
 21
117.66873
  0
LINE
  8
17DEG_15
  6
CONTINUOUS
 62
    7
 10
463.32676
 20
120.06875
 11
463.32676
 21
116.86869
  0
LINE
  8
17DEG_15
  6
CONTINUOUS
 62
    7
 10
463.32676
 20
125.86872
 11
463.32676
 21
128.06878
  0
LINE
  8
17DEG_15
  6
CONTINUOUS
 62
    7
 10
468.32668
 20
120.96869
 11
479.32664
 21
120.96869
  0
LINE
  8
17DEG_15
  6
CONTINUOUS
 62
    7
 10
468.32668
 20
124.28874
 11
468.32668
 21
120.96869
  0
LINE
  8
17DEG_15
  6
CONTINUOUS
 62
    7
 10
479.32664
 20
120.96869
 11
479.32664
 21
123.71226
  0
LINE
  8
17DEG_15
  6
CONTINUOUS
 62
    7
 10
468.32668
 20
124.28874
 11
479.32664
 21
123.71226
  0
LINE
  8
17DEG_15
  6
CONTINUOUS
 62
    7
 10
468.32668
 20
128.46872
 11
468.32668
 21
125.46872
  0
LINE
  8
17DEG_15
  6
CONTINUOUS
 62
    7
 10
473.32681
 20
128.46872
 11
468.32668
 21
128.46872
  0
LINE
  8
17DEG_15
  6
CONTINUOUS
 62
    7
 10
473.32681
 20
125.46872
 11
473.32681
 21
128.46872
  0
LINE
  8
17DEG_15
  6
CONTINUOUS
 62
    7
 10
468.32668
 20
125.46872
 11
473.32681
 21
125.46872
  0
LINE
  8
17DEG_15
  6
CONTINUOUS
 62
    5
 10
188.93063
 20
285.4687
 11
171.93059
 21
285.4687
  0
LINE
  8
17DEG_15
  6
CONTINUOUS
 62
    5
 10
171.93059
 20
284.46872
 11
188.93063
 21
284.46872
  0
LINE
  8
17DEG_15
  6
CONTINUOUS
 62
    5
 10
171.93059
 20
285.4687
 11
171.93059
 21
284.46872
  0
LINE
  8
17DEG_15
  6
CONTINUOUS
 62
    5
 10
188.93063
 20
286.96868
 11
188.93063
 21
282.96869
  0
LINE
  8
17DEG_15
  6
CONTINUOUS
 62
    5
 10
213.93064
 20
286.51878
 11
204.01716
 21
286.51878
  0
LINE
  8
17DEG_15
  6
CONTINUOUS
 62
    5
 10
203.93065
 20
286.56875
 11
204.01716
 21
286.51878
  0
LINE
  8
17DEG_15
  6
CONTINUOUS
 62
    5
 10
203.93065
 20
286.56875
 11
193.93065
 21
286.56875
  0
LINE
  8
17DEG_15
  6
CONTINUOUS
 62
    5
 10
203.93065
 20
283.36875
 11
204.01716
 21
283.41878
  0
LINE
  8
17DEG_15
  6
CONTINUOUS
 62
    5
 10
193.93065
 20
283.36875
 11
203.93065
 21
283.36875
  0
LINE
  8
17DEG_15
  6
DASHED1
 62
    5
 10
188.93063
 20
282.96869
 11
191.93063
 21
282.96869
  0
LINE
  8
17DEG_15
  6
DASHED1
 62
    5
 10
213.93064
 20
286.51878
 11
213.93064
 21
283.41878
  0
LINE
  8
17DEG_15
  6
CONTINUOUS
 62
    5
 10
189.33062
 20
285.76877
 11
189.33062
 21
284.16879
  0
LINE
  8
17DEG_15
  6
CONTINUOUS
 62
    5
 10
193.93065
 20
286.96868
 11
188.93063
 21
286.96868
  0
LINE
  8
17DEG_15
  6
CONTINUOUS
 62
    5
 10
188.93063
 20
282.96869
 11
193.93065
 21
282.96869
  0
LINE
  8
17DEG_15
  6
CONTINUOUS
 62
    5
 10
193.93065
 20
286.56875
 11
193.93065
 21
286.96868
  0
LINE
  8
17DEG_15
  6
CONTINUOUS
 62
    5
 10
193.93065
 20
282.96869
 11
193.93065
 21
283.36875
  0
LINE
  8
17DEG_15
  6
CONTINUOUS
 62
    5
 10
209.97398
 20
284.56877
 11
213.93064
 21
283.76878
  0
LINE
  8
17DEG_15
  6
CONTINUOUS
 62
    5
 10
208.93069
 20
284.56877
 11
209.97398
 21
284.56877
  0
LINE
  8
17DEG_15
  6
CONTINUOUS
 62
    5
 10
209.97398
 20
285.3687
 11
213.93064
 21
286.16874
  0
LINE
  8
17DEG_15
  6
CONTINUOUS
 62
    5
 10
208.93069
 20
285.3687
 11
209.97398
 21
285.3687
  0
LINE
  8
17DEG_15
  6
CONTINUOUS
 62
    5
 10
189.33062
 20
284.16879
 11
208.88054
 21
284.16879
  0
LINE
  8
17DEG_15
  6
CONTINUOUS
 62
    5
 10
208.93069
 20
284.21871
 11
208.93069
 21
284.56877
  0
LINE
  8
17DEG_15
  6
CONTINUOUS
 62
    5
 10
208.88054
 20
285.76877
 11
189.33062
 21
285.76877
  0
LINE
  8
17DEG_15
  6
CONTINUOUS
 62
    5
 10
208.93069
 20
285.3687
 11
208.93069
 21
285.71874
  0
LINE
  8
17DEG_15
  6
CONTINUOUS
 62
    5
 10
204.01716
 20
283.41878
 11
213.93064
 21
283.41878
  0
LINE
  8
17DEG_15
  6
CONTINUOUS
 62
    7
 10
193.93065
 20
286.56875
 11
193.93065
 21
283.36875
  0
LINE
  8
17DEG_15
  6
CONTINUOUS
 62
    5
 10
176.03824
 20
290.96867
 11
176.03824
 21
291.36878
  0
LINE
  8
17DEG_15
  6
CONTINUOUS
 62
    5
 10
176.03824
 20
294.56875
 11
176.03824
 21
294.96878
  0
LINE
  8
17DEG_15
  6
CONTINUOUS
 62
    5
 10
171.03832
 20
290.96867
 11
176.03824
 21
290.96867
  0
LINE
  8
17DEG_15
  6
CONTINUOUS
 62
    5
 10
176.03824
 20
294.96878
 11
171.03832
 21
294.96878
  0
LINE
  8
17DEG_15
  6
CONTINUOUS
 62
    5
 10
171.03832
 20
294.96878
 11
171.03832
 21
290.96867
  0
LINE
  8
17DEG_15
  6
CONTINUOUS
 62
    5
 10
171.43831
 20
293.76876
 11
171.43831
 21
292.16879
  0
LINE
  8
17DEG_15
  6
CONTINUOUS
 62
    5
 10
198.0383
 20
294.56875
 11
198.12492
 21
294.51877
  0
LINE
  8
17DEG_15
  6
CONTINUOUS
 62
    5
 10
198.0383
 20
294.56875
 11
176.03824
 21
294.56875
  0
LINE
  8
17DEG_15
  6
CONTINUOUS
 62
    5
 10
198.0383
 20
291.36878
 11
198.12492
 21
291.41877
  0
LINE
  8
17DEG_15
  6
CONTINUOUS
 62
    5
 10
176.03824
 20
291.36878
 11
198.0383
 21
291.36878
  0
LINE
  8
17DEG_15
  6
CONTINUOUS
 62
    5
 10
198.12492
 20
291.41877
 11
208.0383
 21
291.41877
  0
LINE
  8
17DEG_15
  6
CONTINUOUS
 62
    5
 10
208.0383
 20
294.51877
 11
198.12492
 21
294.51877
  0
LINE
  8
17DEG_15
  6
CONTINUOUS
 62
    5
 10
208.0383
 20
294.51877
 11
208.0383
 21
293.9177
  0
LINE
  8
17DEG_15
  6
CONTINUOUS
 62
    5
 10
208.0383
 20
292.02912
 11
208.0383
 21
291.41877
  0
LINE
  8
17DEG_15
  6
CONTINUOUS
 62
    5
 10
201.65294
 20
293.38332
 11
208.0383
 21
293.9177
  0
LINE
  8
17DEG_15
  6
CONTINUOUS
 62
    5
 10
201.65294
 20
292.58344
 11
208.0383
 21
292.02912
  0
LINE
  8
17DEG_15
  6
DASHED1
 62
    5
 10
171.03832
 20
290.96867
 11
174.03827
 21
290.96867
  0
LINE
  8
17DEG_15
  6
CONTINUOUS
 62
    5
 10
200.73217
 20
293.36873
 11
201.65294
 21
293.38332
  0
LINE
  8
17DEG_15
  6
CONTINUOUS
 62
    5
 10
200.73217
 20
292.56874
 11
201.65294
 21
292.58344
  0
LINE
  8
17DEG_15
  6
CONTINUOUS
 62
    5
 10
200.68225
 20
293.76876
 11
171.43831
 21
293.76876
  0
LINE
  8
17DEG_15
  6
CONTINUOUS
 62
    5
 10
200.73217
 20
293.36873
 11
200.73217
 21
293.71865
  0
LINE
  8
17DEG_15
  6
CONTINUOUS
 62
    5
 10
200.73217
 20
292.21874
 11
200.73217
 21
292.56874
  0
LINE
  8
17DEG_15
  6
CONTINUOUS
 62
    5
 10
171.43831
 20
292.16879
 11
200.68225
 21
292.16879
  0
LINE
  8
17DEG_15
  6
CONTINUOUS
 62
    7
 10
176.03824
 20
294.56875
 11
176.03824
 21
291.36878
  0
LINE
  8
17DEG_15
  6
CONTINUOUS
 62
    5
 10
171.03832
 20
293.46873
 11
154.03833
 21
293.46873
  0
LINE
  8
17DEG_15
  6
CONTINUOUS
 62
    5
 10
154.03833
 20
292.46869
 11
171.03832
 21
292.46869
  0
LINE
  8
17DEG_15
  6
CONTINUOUS
 62
    5
 10
154.03833
 20
293.46873
 11
154.03833
 21
292.46869
  0
LINE
  8
17DEG_15
  6
CONTINUOUS
 62
    5
 10
316.47314
 20
212.46867
 11
316.47314
 21
212.86872
  0
LINE
  8
17DEG_15
  6
CONTINUOUS
 62
    5
 10
316.47314
 20
216.06877
 11
316.47314
 21
216.46877
  0
LINE
  8
17DEG_15
  6
CONTINUOUS
 62
    5
 10
311.47322
 20
212.46867
 11
316.47314
 21
212.46867
  0
LINE
  8
17DEG_15
  6
CONTINUOUS
 62
    5
 10
316.47314
 20
216.46877
 11
311.47322
 21
216.46877
  0
LINE
  8
17DEG_15
  6
CONTINUOUS
 62
    5
 10
311.47322
 20
216.46877
 11
311.47322
 21
212.46867
  0
LINE
  8
17DEG_15
  6
CONTINUOUS
 62
    5
 10
311.87321
 20
215.26879
 11
311.87321
 21
213.66871
  0
LINE
  8
17DEG_15
  6
CONTINUOUS
 62
    5
 10
338.47317
 20
216.06877
 11
338.55988
 21
216.0188
  0
LINE
  8
17DEG_15
  6
CONTINUOUS
 62
    5
 10
338.47317
 20
216.06877
 11
316.47314
 21
216.06877
  0
LINE
  8
17DEG_15
  6
CONTINUOUS
 62
    5
 10
338.47317
 20
212.86872
 11
338.55988
 21
212.91869
  0
LINE
  8
17DEG_15
  6
CONTINUOUS
 62
    5
 10
316.47314
 20
212.86872
 11
338.47317
 21
212.86872
  0
LINE
  8
17DEG_15
  6
CONTINUOUS
 62
    5
 10
338.55988
 20
212.91869
 11
348.47321
 21
212.91869
  0
LINE
  8
17DEG_15
  6
CONTINUOUS
 62
    5
 10
348.47321
 20
216.0188
 11
338.55988
 21
216.0188
  0
LINE
  8
17DEG_15
  6
CONTINUOUS
 62
    5
 10
348.47321
 20
216.0188
 11
348.47321
 21
215.41771
  0
LINE
  8
17DEG_15
  6
CONTINUOUS
 62
    5
 10
348.47321
 20
213.52918
 11
348.47321
 21
212.91869
  0
LINE
  8
17DEG_15
  6
CONTINUOUS
 62
    5
 10
342.08784
 20
214.8834
 11
348.47321
 21
215.41771
  0
LINE
  8
17DEG_15
  6
CONTINUOUS
 62
    5
 10
342.08784
 20
214.08342
 11
348.47321
 21
213.52918
  0
LINE
  8
17DEG_15
  6
DASHED1
 62
    5
 10
311.47322
 20
212.46867
 11
314.47313
 21
212.46867
  0
LINE
  8
17DEG_15
  6
CONTINUOUS
 62
    5
 10
341.16712
 20
214.86869
 11
342.08784
 21
214.8834
  0
LINE
  8
17DEG_15
  6
CONTINUOUS
 62
    5
 10
341.16712
 20
214.0687
 11
342.08784
 21
214.08342
  0
LINE
  8
17DEG_15
  6
CONTINUOUS
 62
    5
 10
341.11704
 20
215.26879
 11
311.87321
 21
215.26879
  0
LINE
  8
17DEG_15
  6
CONTINUOUS
 62
    5
 10
341.16712
 20
214.86869
 11
341.16712
 21
215.21871
  0
LINE
  8
17DEG_15
  6
CONTINUOUS
 62
    5
 10
341.16712
 20
213.71868
 11
341.16712
 21
214.0687
  0
LINE
  8
17DEG_15
  6
CONTINUOUS
 62
    5
 10
311.87321
 20
213.66871
 11
341.11704
 21
213.66871
  0
LINE
  8
17DEG_15
  6
CONTINUOUS
 62
    7
 10
316.47314
 20
216.06877
 11
316.47314
 21
212.86872
  0
LINE
  8
17DEG_15
  6
CONTINUOUS
 62
    5
 10
311.47322
 20
214.96874
 11
294.47318
 21
214.96874
  0
LINE
  8
17DEG_15
  6
CONTINUOUS
 62
    5
 10
294.47318
 20
213.9687
 11
311.47322
 21
213.9687
  0
LINE
  8
17DEG_15
  6
CONTINUOUS
 62
    5
 10
294.47318
 20
214.96874
 11
294.47318
 21
213.9687
  0
LINE
  8
17DEG_15
  6
CONTINUOUS
 62
    5
 10
342.88695
 20
196.96873
 11
342.88695
 21
197.36872
  0
LINE
  8
17DEG_15
  6
CONTINUOUS
 62
    5
 10
342.88695
 20
200.56876
 11
342.88695
 21
200.96875
  0
LINE
  8
17DEG_15
  6
CONTINUOUS
 62
    5
 10
337.88696
 20
196.96873
 11
342.88695
 21
196.96873
  0
LINE
  8
17DEG_15
  6
CONTINUOUS
 62
    5
 10
342.88695
 20
200.96875
 11
337.88696
 21
200.96875
  0
LINE
  8
17DEG_15
  6
CONTINUOUS
 62
    5
 10
337.88696
 20
200.96875
 11
337.88696
 21
196.96873
  0
LINE
  8
17DEG_15
  6
CONTINUOUS
 62
    5
 10
338.28706
 20
199.76877
 11
338.28706
 21
198.16871
  0
LINE
  8
17DEG_15
  6
CONTINUOUS
 62
    5
 10
364.88702
 20
200.56876
 11
364.97356
 21
200.51879
  0
LINE
  8
17DEG_15
  6
CONTINUOUS
 62
    5
 10
364.88702
 20
200.56876
 11
342.88695
 21
200.56876
  0
LINE
  8
17DEG_15
  6
CONTINUOUS
 62
    5
 10
364.88702
 20
197.36872
 11
364.97356
 21
197.4188
  0
LINE
  8
17DEG_15
  6
CONTINUOUS
 62
    5
 10
342.88695
 20
197.36872
 11
364.88702
 21
197.36872
  0
LINE
  8
17DEG_15
  6
CONTINUOUS
 62
    5
 10
364.97356
 20
197.4188
 11
374.887
 21
197.4188
  0
LINE
  8
17DEG_15
  6
CONTINUOUS
 62
    5
 10
374.887
 20
200.51879
 11
364.97356
 21
200.51879
  0
LINE
  8
17DEG_15
  6
CONTINUOUS
 62
    5
 10
374.887
 20
200.51879
 11
374.887
 21
199.91769
  0
LINE
  8
17DEG_15
  6
CONTINUOUS
 62
    5
 10
374.887
 20
198.02919
 11
374.887
 21
197.4188
  0
LINE
  8
17DEG_15
  6
CONTINUOUS
 62
    5
 10
368.50166
 20
199.38337
 11
374.887
 21
199.91769
  0
LINE
  8
17DEG_15
  6
CONTINUOUS
 62
    5
 10
368.50166
 20
198.58339
 11
374.887
 21
198.02919
  0
LINE
  8
17DEG_15
  6
DASHED1
 62
    5
 10
337.88696
 20
196.96873
 11
340.88705
 21
196.96873
  0
LINE
  8
17DEG_15
  6
CONTINUOUS
 62
    5
 10
367.58094
 20
199.36867
 11
368.50166
 21
199.38337
  0
LINE
  8
17DEG_15
  6
CONTINUOUS
 62
    5
 10
367.58094
 20
198.56871
 11
368.50166
 21
198.58339
  0
LINE
  8
17DEG_15
  6
CONTINUOUS
 62
    5
 10
367.53096
 20
199.76877
 11
338.28706
 21
199.76877
  0
LINE
  8
17DEG_15
  6
CONTINUOUS
 62
    5
 10
367.58094
 20
199.36867
 11
367.58094
 21
199.7187
  0
LINE
  8
17DEG_15
  6
CONTINUOUS
 62
    5
 10
367.58094
 20
198.21867
 11
367.58094
 21
198.56871
  0
LINE
  8
17DEG_15
  6
CONTINUOUS
 62
    5
 10
338.28706
 20
198.16871
 11
367.53096
 21
198.16871
  0
LINE
  8
17DEG_15
  6
CONTINUOUS
 62
    7
 10
342.88695
 20
200.56876
 11
342.88695
 21
197.36872
  0
LINE
  8
17DEG_15
  6
CONTINUOUS
 62
    5
 10
337.88696
 20
199.46873
 11
320.88703
 21
199.46873
  0
LINE
  8
17DEG_15
  6
CONTINUOUS
 62
    5
 10
320.88703
 20
198.46869
 11
337.88696
 21
198.46869
  0
LINE
  8
17DEG_15
  6
CONTINUOUS
 62
    5
 10
320.88703
 20
199.46873
 11
320.88703
 21
198.46869
  0
LINE
  8
17DEG_15
  6
CONTINUOUS
 62
    5
 10
438.34585
 20
141.46872
 11
421.34588
 21
141.46872
  0
LINE
  8
17DEG_15
  6
CONTINUOUS
 62
    5
 10
421.34588
 20
140.46873
 11
438.34585
 21
140.46873
  0
LINE
  8
17DEG_15
  6
CONTINUOUS
 62
    5
 10
421.34588
 20
141.46872
 11
421.34588
 21
140.46873
  0
LINE
  8
17DEG_15
  6
CONTINUOUS
 62
    5
 10
438.34585
 20
142.96875
 11
438.34585
 21
138.96871
  0
LINE
  8
17DEG_15
  6
CONTINUOUS
 62
    5
 10
463.34594
 20
142.51878
 11
453.4325
 21
142.51878
  0
LINE
  8
17DEG_15
  6
CONTINUOUS
 62
    5
 10
453.34592
 20
142.56875
 11
453.4325
 21
142.51878
  0
LINE
  8
17DEG_15
  6
CONTINUOUS
 62
    5
 10
453.34592
 20
142.56875
 11
443.34594
 21
142.56875
  0
LINE
  8
17DEG_15
  6
CONTINUOUS
 62
    5
 10
453.34592
 20
139.36875
 11
453.4325
 21
139.41878
  0
LINE
  8
17DEG_15
  6
CONTINUOUS
 62
    5
 10
443.34594
 20
139.36875
 11
453.34592
 21
139.36875
  0
LINE
  8
17DEG_15
  6
DASHED1
 62
    5
 10
438.34585
 20
138.96871
 11
441.34587
 21
138.96871
  0
LINE
  8
17DEG_15
  6
DASHED1
 62
    5
 10
463.34594
 20
142.51878
 11
463.34594
 21
139.41878
  0
LINE
  8
17DEG_15
  6
CONTINUOUS
 62
    5
 10
438.74581
 20
141.76876
 11
438.74581
 21
140.16874
  0
LINE
  8
17DEG_15
  6
CONTINUOUS
 62
    5
 10
443.34594
 20
142.96875
 11
438.34585
 21
142.96875
  0
LINE
  8
17DEG_15
  6
CONTINUOUS
 62
    5
 10
438.34585
 20
138.96871
 11
443.34594
 21
138.96871
  0
LINE
  8
17DEG_15
  6
CONTINUOUS
 62
    5
 10
443.34594
 20
142.56875
 11
443.34594
 21
142.96875
  0
LINE
  8
17DEG_15
  6
CONTINUOUS
 62
    5
 10
443.34594
 20
138.96871
 11
443.34594
 21
139.36875
  0
LINE
  8
17DEG_15
  6
CONTINUOUS
 62
    5
 10
459.38925
 20
140.56873
 11
463.34594
 21
139.7688
  0
LINE
  8
17DEG_15
  6
CONTINUOUS
 62
    5
 10
458.34595
 20
140.56873
 11
459.38925
 21
140.56873
  0
LINE
  8
17DEG_15
  6
CONTINUOUS
 62
    5
 10
459.38925
 20
141.36872
 11
463.34594
 21
142.16876
  0
LINE
  8
17DEG_15
  6
CONTINUOUS
 62
    5
 10
458.34595
 20
141.36872
 11
459.38925
 21
141.36872
  0
LINE
  8
17DEG_15
  6
CONTINUOUS
 62
    5
 10
438.74581
 20
140.16874
 11
458.29594
 21
140.16874
  0
LINE
  8
17DEG_15
  6
CONTINUOUS
 62
    5
 10
458.34595
 20
140.21871
 11
458.34595
 21
140.56873
  0
LINE
  8
17DEG_15
  6
CONTINUOUS
 62
    5
 10
458.29594
 20
141.76876
 11
438.74581
 21
141.76876
  0
LINE
  8
17DEG_15
  6
CONTINUOUS
 62
    5
 10
458.34595
 20
141.36872
 11
458.34595
 21
141.71869
  0
LINE
  8
17DEG_15
  6
CONTINUOUS
 62
    5
 10
453.4325
 20
139.41878
 11
463.34594
 21
139.41878
  0
LINE
  8
17DEG_15
  6
CONTINUOUS
 62
    7
 10
443.34594
 20
142.56875
 11
443.34594
 21
139.36875
  0
LINE
  8
17DEG_15
  6
CONTINUOUS
 62
    5
 10
457.20241
 20
130.96873
 11
457.20241
 21
131.36872
  0
LINE
  8
17DEG_15
  6
CONTINUOUS
 62
    5
 10
457.20241
 20
134.56872
 11
457.20241
 21
134.96866
  0
LINE
  8
17DEG_15
  6
CONTINUOUS
 62
    5
 10
452.20228
 20
130.96873
 11
457.20241
 21
130.96873
  0
LINE
  8
17DEG_15
  6
CONTINUOUS
 62
    5
 10
457.20241
 20
134.96866
 11
452.20228
 21
134.96866
  0
LINE
  8
17DEG_15
  6
CONTINUOUS
 62
    5
 10
452.20228
 20
134.96866
 11
452.20228
 21
130.96873
  0
LINE
  8
17DEG_15
  6
CONTINUOUS
 62
    5
 10
452.60238
 20
133.76874
 11
452.60238
 21
132.16876
  0
LINE
  8
17DEG_15
  6
CONTINUOUS
 62
    5
 10
479.20227
 20
134.56872
 11
479.28902
 21
134.5188
  0
LINE
  8
17DEG_15
  6
CONTINUOUS
 62
    5
 10
479.20227
 20
134.56872
 11
457.20241
 21
134.56872
  0
LINE
  8
17DEG_15
  6
CONTINUOUS
 62
    5
 10
479.20227
 20
131.36872
 11
479.28902
 21
131.4187
  0
LINE
  8
17DEG_15
  6
CONTINUOUS
 62
    5
 10
457.20241
 20
131.36872
 11
479.20227
 21
131.36872
  0
LINE
  8
17DEG_15
  6
CONTINUOUS
 62
    5
 10
479.28902
 20
131.4187
 11
489.20232
 21
131.4187
  0
LINE
  8
17DEG_15
  6
CONTINUOUS
 62
    5
 10
489.20232
 20
134.5188
 11
479.28902
 21
134.5188
  0
LINE
  8
17DEG_15
  6
CONTINUOUS
 62
    5
 10
489.20232
 20
134.5188
 11
489.20232
 21
133.91771
  0
LINE
  8
17DEG_15
  6
CONTINUOUS
 62
    5
 10
489.20232
 20
132.02918
 11
489.20232
 21
131.4187
  0
LINE
  8
17DEG_15
  6
CONTINUOUS
 62
    5
 10
482.81691
 20
133.3834
 11
489.20232
 21
133.91771
  0
LINE
  8
17DEG_15
  6
CONTINUOUS
 62
    5
 10
482.81691
 20
132.58341
 11
489.20232
 21
132.02918
  0
LINE
  8
17DEG_15
  6
DASHED1
 62
    5
 10
452.20228
 20
130.96873
 11
455.20234
 21
130.96873
  0
LINE
  8
17DEG_15
  6
CONTINUOUS
 62
    5
 10
481.89622
 20
133.36874
 11
482.81691
 21
133.3834
  0
LINE
  8
17DEG_15
  6
CONTINUOUS
 62
    5
 10
481.89622
 20
132.56876
 11
482.81691
 21
132.58341
  0
LINE
  8
17DEG_15
  6
CONTINUOUS
 62
    5
 10
481.84621
 20
133.76874
 11
452.60238
 21
133.76874
  0
LINE
  8
17DEG_15
  6
CONTINUOUS
 62
    5
 10
481.89622
 20
133.36874
 11
481.89622
 21
133.71871
  0
LINE
  8
17DEG_15
  6
CONTINUOUS
 62
    5
 10
481.89622
 20
132.21867
 11
481.89622
 21
132.56876
  0
LINE
  8
17DEG_15
  6
CONTINUOUS
 62
    5
 10
452.60238
 20
132.16876
 11
481.84621
 21
132.16876
  0
LINE
  8
17DEG_15
  6
CONTINUOUS
 62
    7
 10
457.20241
 20
134.56872
 11
457.20241
 21
131.36872
  0
LINE
  8
17DEG_15
  6
CONTINUOUS
 62
    5
 10
452.20228
 20
133.46875
 11
435.20235
 21
133.46875
  0
LINE
  8
17DEG_15
  6
CONTINUOUS
 62
    5
 10
435.20235
 20
132.4687
 11
452.20228
 21
132.4687
  0
LINE
  8
17DEG_15
  6
CONTINUOUS
 62
    5
 10
435.20235
 20
133.46875
 11
435.20235
 21
132.4687
  0
LINE
  8
17DEG_15
  6
CONTINUOUS
 62
    5
 10
463.32665
 20
94.568796
 11
463.32665
 21
94.968685
  0
LINE
  8
17DEG_15
  6
CONTINUOUS
 62
    5
 10
463.32665
 20
90.968697
 11
463.32665
 21
91.368752
  0
LINE
  8
17DEG_15
  6
CONTINUOUS
 62
    5
 10
458.32659
 20
94.968685
 11
458.32659
 21
90.968697
  0
LINE
  8
17DEG_15
  6
CONTINUOUS
 62
    7
 10
463.32665
 20
94.568796
 11
463.32665
 21
91.368752
  0
LINE
  8
17DEG_15
  6
CONTINUOUS
 62
    5
 10
485.4133
 20
91.418716
 11
500.32669
 21
91.418716
  0
LINE
  8
17DEG_15
  6
CONTINUOUS
 62
    5
 10
500.32669
 20
94.518771
 11
485.4133
 21
94.518771
  0
LINE
  8
17DEG_15
  6
CONTINUOUS
 62
    5
 10
500.32669
 20
94.518771
 11
500.32669
 21
93.917678
  0
LINE
  8
17DEG_15
  6
CONTINUOUS
 62
    5
 10
500.32669
 20
92.029152
 11
500.32669
 21
91.418716
  0
LINE
  8
17DEG_15
  6
CONTINUOUS
 62
    5
 10
488.94132
 20
93.383417
 11
500.32669
 21
93.917678
  0
LINE
  8
17DEG_15
  6
CONTINUOUS
 62
    5
 10
488.94132
 20
92.583422
 11
500.32669
 21
92.029152
  0
LINE
  8
17DEG_15
  6
CONTINUOUS
 62
    5
 10
488.0206
 20
92.218756
 11
488.0206
 21
92.568732
  0
LINE
  8
17DEG_15
  6
CONTINUOUS
 62
    5
 10
488.0206
 20
93.368711
 11
488.0206
 21
93.718731
  0
LINE
  8
17DEG_15
  6
CONTINUOUS
 62
    5
 10
488.0206
 20
92.568732
 11
488.94132
 21
92.583422
  0
LINE
  8
17DEG_15
  6
CONTINUOUS
 62
    5
 10
488.0206
 20
93.368711
 11
488.94132
 21
93.383417
  0
LINE
  8
17DEG_15
  6
CONTINUOUS
 62
    5
 10
485.32668
 20
91.368752
 11
485.4133
 21
91.418716
  0
LINE
  8
17DEG_15
  6
CONTINUOUS
 62
    5
 10
485.32668
 20
94.568796
 11
485.4133
 21
94.518771
  0
LINE
  8
17DEG_15
  6
CONTINUOUS
 62
    5
 10
458.72662
 20
92.168739
 11
487.97056
 21
92.168739
  0
LINE
  8
17DEG_15
  6
CONTINUOUS
 62
    5
 10
487.97056
 20
93.768757
 11
458.72662
 21
93.768757
  0
LINE
  8
17DEG_15
  6
CONTINUOUS
 62
    5
 10
463.32665
 20
91.368752
 11
485.32668
 21
91.368752
  0
LINE
  8
17DEG_15
  6
CONTINUOUS
 62
    5
 10
485.32668
 20
94.568796
 11
463.32665
 21
94.568796
  0
LINE
  8
17DEG_15
  6
CONTINUOUS
 62
    5
 10
441.32655
 20
93.468762
 11
441.32655
 21
92.468725
  0
LINE
  8
17DEG_15
  6
CONTINUOUS
 62
    5
 10
441.32655
 20
92.468725
 11
458.32659
 21
92.468725
  0
LINE
  8
17DEG_15
  6
CONTINUOUS
 62
    5
 10
458.32659
 20
93.468762
 11
441.32655
 21
93.468762
  0
LINE
  8
17DEG_15
  6
DASHED1
 62
    5
 10
458.32659
 20
90.968697
 11
461.32665
 21
90.968697
  0
LINE
  8
17DEG_15
  6
CONTINUOUS
 62
    5
 10
458.72662
 20
93.768757
 11
458.72662
 21
92.168739
  0
LINE
  8
17DEG_15
  6
CONTINUOUS
 62
    5
 10
463.32665
 20
94.968685
 11
458.32659
 21
94.968685
  0
LINE
  8
17DEG_15
  6
CONTINUOUS
 62
    5
 10
458.32659
 20
90.968697
 11
463.32665
 21
90.968697
  0
LINE
  8
17DEG_15
  6
CONTINUOUS
 62
    5
 10
463.32665
 20
104.56874
 11
463.32665
 21
104.96868
  0
LINE
  8
17DEG_15
  6
CONTINUOUS
 62
    5
 10
463.32665
 20
100.96869
 11
463.32665
 21
101.36868
  0
LINE
  8
17DEG_15
  6
CONTINUOUS
 62
    5
 10
458.32659
 20
104.96868
 11
458.32659
 21
100.96869
  0
LINE
  8
17DEG_15
  6
CONTINUOUS
 62
    7
 10
463.32665
 20
104.56874
 11
463.32665
 21
101.36868
  0
LINE
  8
17DEG_15
  6
CONTINUOUS
 62
    5
 10
485.4133
 20
101.41871
 11
500.32669
 21
101.41871
  0
LINE
  8
17DEG_15
  6
CONTINUOUS
 62
    5
 10
500.32669
 20
104.51876
 11
485.4133
 21
104.51876
  0
LINE
  8
17DEG_15
  6
CONTINUOUS
 62
    5
 10
500.32669
 20
104.51876
 11
500.32669
 21
103.91772
  0
LINE
  8
17DEG_15
  6
CONTINUOUS
 62
    5
 10
500.32669
 20
102.02914
 11
500.32669
 21
101.41871
  0
LINE
  8
17DEG_15
  6
CONTINUOUS
 62
    5
 10
488.94132
 20
103.3834
 11
500.32669
 21
103.91772
  0
LINE
  8
17DEG_15
  6
CONTINUOUS
 62
    5
 10
488.94132
 20
102.58341
 11
500.32669
 21
102.02914
  0
LINE
  8
17DEG_15
  6
CONTINUOUS
 62
    5
 10
488.0206
 20
102.21869
 11
488.0206
 21
102.56877
  0
LINE
  8
17DEG_15
  6
CONTINUOUS
 62
    5
 10
488.0206
 20
103.36875
 11
488.0206
 21
103.71867
  0
LINE
  8
17DEG_15
  6
CONTINUOUS
 62
    5
 10
488.0206
 20
102.56877
 11
488.94132
 21
102.58341
  0
LINE
  8
17DEG_15
  6
CONTINUOUS
 62
    5
 10
488.0206
 20
103.36875
 11
488.94132
 21
103.3834
  0
LINE
  8
17DEG_15
  6
CONTINUOUS
 62
    5
 10
485.32668
 20
101.36868
 11
485.4133
 21
101.41871
  0
LINE
  8
17DEG_15
  6
CONTINUOUS
 62
    5
 10
485.32668
 20
104.56874
 11
485.4133
 21
104.51876
  0
LINE
  8
17DEG_15
  6
CONTINUOUS
 62
    5
 10
458.72662
 20
102.16877
 11
487.97056
 21
102.16877
  0
LINE
  8
17DEG_15
  6
CONTINUOUS
 62
    5
 10
487.97056
 20
103.76875
 11
458.72662
 21
103.76875
  0
LINE
  8
17DEG_15
  6
CONTINUOUS
 62
    5
 10
463.32665
 20
101.36868
 11
485.32668
 21
101.36868
  0
LINE
  8
17DEG_15
  6
CONTINUOUS
 62
    5
 10
485.32668
 20
104.56874
 11
463.32665
 21
104.56874
  0
LINE
  8
17DEG_15
  6
CONTINUOUS
 62
    5
 10
441.32655
 20
103.4687
 11
441.32655
 21
102.46872
  0
LINE
  8
17DEG_15
  6
CONTINUOUS
 62
    5
 10
441.32655
 20
102.46872
 11
458.32659
 21
102.46872
  0
LINE
  8
17DEG_15
  6
CONTINUOUS
 62
    5
 10
458.32659
 20
103.4687
 11
441.32655
 21
103.4687
  0
LINE
  8
17DEG_15
  6
DASHED1
 62
    5
 10
458.32659
 20
100.96869
 11
461.32665
 21
100.96869
  0
LINE
  8
17DEG_15
  6
CONTINUOUS
 62
    5
 10
458.72662
 20
103.76875
 11
458.72662
 21
102.16877
  0
LINE
  8
17DEG_15
  6
CONTINUOUS
 62
    5
 10
463.32665
 20
104.96868
 11
458.32659
 21
104.96868
  0
LINE
  8
17DEG_15
  6
CONTINUOUS
 62
    5
 10
458.32659
 20
100.96869
 11
463.32665
 21
100.96869
  0
LINE
  8
17DEG_15
  6
CONTINUOUS
 62
    5
 10
463.32665
 20
115.06873
 11
463.32665
 21
115.46873
  0
LINE
  8
17DEG_15
  6
CONTINUOUS
 62
    5
 10
463.32665
 20
111.46868
 11
463.32665
 21
111.86873
  0
LINE
  8
17DEG_15
  6
CONTINUOUS
 62
    5
 10
458.32659
 20
115.46873
 11
458.32659
 21
111.46868
  0
LINE
  8
17DEG_15
  6
CONTINUOUS
 62
    7
 10
463.32665
 20
115.06873
 11
463.32665
 21
111.86873
  0
LINE
  8
17DEG_15
  6
CONTINUOUS
 62
    5
 10
485.4133
 20
111.91875
 11
500.32669
 21
111.91875
  0
LINE
  8
17DEG_15
  6
CONTINUOUS
 62
    5
 10
500.32669
 20
115.01876
 11
485.4133
 21
115.01876
  0
LINE
  8
17DEG_15
  6
CONTINUOUS
 62
    5
 10
500.32669
 20
115.01876
 11
500.32669
 21
114.41772
  0
LINE
  8
17DEG_15
  6
CONTINUOUS
 62
    5
 10
500.32669
 20
112.52913
 11
500.32669
 21
111.91875
  0
LINE
  8
17DEG_15
  6
CONTINUOUS
 62
    5
 10
488.94132
 20
113.88339
 11
500.32669
 21
114.41772
  0
LINE
  8
17DEG_15
  6
CONTINUOUS
 62
    5
 10
488.94132
 20
113.0834
 11
500.32669
 21
112.52913
  0
LINE
  8
17DEG_15
  6
CONTINUOUS
 62
    5
 10
488.0206
 20
112.71868
 11
488.0206
 21
113.06876
  0
LINE
  8
17DEG_15
  6
CONTINUOUS
 62
    5
 10
488.0206
 20
113.86875
 11
488.0206
 21
114.21872
  0
LINE
  8
17DEG_15
  6
CONTINUOUS
 62
    5
 10
488.0206
 20
113.06876
 11
488.94132
 21
113.0834
  0
LINE
  8
17DEG_15
  6
CONTINUOUS
 62
    5
 10
488.0206
 20
113.86875
 11
488.94132
 21
113.88339
  0
LINE
  8
17DEG_15
  6
CONTINUOUS
 62
    5
 10
485.32668
 20
111.86873
 11
485.4133
 21
111.91875
  0
LINE
  8
17DEG_15
  6
CONTINUOUS
 62
    5
 10
485.32668
 20
115.06873
 11
485.4133
 21
115.01876
  0
LINE
  8
17DEG_15
  6
CONTINUOUS
 62
    5
 10
458.72662
 20
112.66877
 11
487.97056
 21
112.66877
  0
LINE
  8
17DEG_15
  6
CONTINUOUS
 62
    5
 10
487.97056
 20
114.26875
 11
458.72662
 21
114.26875
  0
LINE
  8
17DEG_15
  6
CONTINUOUS
 62
    5
 10
463.32665
 20
111.86873
 11
485.32668
 21
111.86873
  0
LINE
  8
17DEG_15
  6
CONTINUOUS
 62
    5
 10
485.32668
 20
115.06873
 11
463.32665
 21
115.06873
  0
LINE
  8
17DEG_15
  6
CONTINUOUS
 62
    5
 10
441.32655
 20
113.96874
 11
441.32655
 21
112.96871
  0
LINE
  8
17DEG_15
  6
CONTINUOUS
 62
    5
 10
441.32655
 20
112.96871
 11
458.32659
 21
112.96871
  0
LINE
  8
17DEG_15
  6
CONTINUOUS
 62
    5
 10
458.32659
 20
113.96874
 11
441.32655
 21
113.96874
  0
LINE
  8
17DEG_15
  6
DASHED1
 62
    5
 10
458.32659
 20
111.46868
 11
461.32665
 21
111.46868
  0
LINE
  8
17DEG_15
  6
CONTINUOUS
 62
    5
 10
458.72662
 20
114.26875
 11
458.72662
 21
112.66877
  0
LINE
  8
17DEG_15
  6
CONTINUOUS
 62
    5
 10
463.32665
 20
115.46873
 11
458.32659
 21
115.46873
  0
LINE
  8
17DEG_15
  6
CONTINUOUS
 62
    5
 10
458.32659
 20
111.46868
 11
463.32665
 21
111.46868
  0
LINE
  8
17DEG_15
  6
CONTINUOUS
 62
    5
 10
370.16676
 20
180.96871
 11
370.16676
 21
181.3687
  0
LINE
  8
17DEG_15
  6
CONTINUOUS
 62
    5
 10
370.16676
 20
184.5687
 11
370.16676
 21
184.9687
  0
LINE
  8
17DEG_15
  6
CONTINUOUS
 62
    5
 10
365.16684
 20
180.96871
 11
370.16676
 21
180.96871
  0
LINE
  8
17DEG_15
  6
CONTINUOUS
 62
    5
 10
370.16676
 20
184.9687
 11
365.16684
 21
184.9687
  0
LINE
  8
17DEG_15
  6
CONTINUOUS
 62
    5
 10
365.16684
 20
184.9687
 11
365.16684
 21
180.96871
  0
LINE
  8
17DEG_15
  6
CONTINUOUS
 62
    5
 10
365.56673
 20
183.76872
 11
365.56673
 21
182.16869
  0
LINE
  8
17DEG_15
  6
CONTINUOUS
 62
    5
 10
392.16679
 20
184.5687
 11
392.25343
 21
184.51875
  0
LINE
  8
17DEG_15
  6
CONTINUOUS
 62
    5
 10
392.16679
 20
184.5687
 11
370.16676
 21
184.5687
  0
LINE
  8
17DEG_15
  6
CONTINUOUS
 62
    5
 10
392.16679
 20
181.3687
 11
392.25343
 21
181.41873
  0
LINE
  8
17DEG_15
  6
CONTINUOUS
 62
    5
 10
370.16676
 20
181.3687
 11
392.16679
 21
181.3687
  0
LINE
  8
17DEG_15
  6
CONTINUOUS
 62
    5
 10
392.25343
 20
181.41873
 11
402.16687
 21
181.41873
  0
LINE
  8
17DEG_15
  6
CONTINUOUS
 62
    5
 10
402.16687
 20
184.51875
 11
392.25343
 21
184.51875
  0
LINE
  8
17DEG_15
  6
CONTINUOUS
 62
    5
 10
402.16687
 20
184.51875
 11
402.16687
 21
183.91771
  0
LINE
  8
17DEG_15
  6
CONTINUOUS
 62
    5
 10
402.16687
 20
182.02911
 11
402.16687
 21
181.41873
  0
LINE
  8
17DEG_15
  6
CONTINUOUS
 62
    5
 10
395.78136
 20
183.38337
 11
402.16687
 21
183.91771
  0
LINE
  8
17DEG_15
  6
CONTINUOUS
 62
    5
 10
395.78136
 20
182.58338
 11
402.16687
 21
182.02911
  0
LINE
  8
17DEG_15
  6
DASHED1
 62
    5
 10
365.16684
 20
180.96871
 11
368.16675
 21
180.96871
  0
LINE
  8
17DEG_15
  6
CONTINUOUS
 62
    5
 10
394.86074
 20
183.36872
 11
395.78136
 21
183.38337
  0
LINE
  8
17DEG_15
  6
CONTINUOUS
 62
    5
 10
394.86074
 20
182.56874
 11
395.78136
 21
182.58338
  0
LINE
  8
17DEG_15
  6
CONTINUOUS
 62
    5
 10
394.81066
 20
183.76872
 11
365.56673
 21
183.76872
  0
LINE
  8
17DEG_15
  6
CONTINUOUS
 62
    5
 10
394.86074
 20
183.36872
 11
394.86074
 21
183.71869
  0
LINE
  8
17DEG_15
  6
CONTINUOUS
 62
    5
 10
394.86074
 20
182.21872
 11
394.86074
 21
182.56874
  0
LINE
  8
17DEG_15
  6
CONTINUOUS
 62
    5
 10
365.56673
 20
182.16869
 11
394.81066
 21
182.16869
  0
LINE
  8
17DEG_15
  6
CONTINUOUS
 62
    7
 10
370.16676
 20
184.5687
 11
370.16676
 21
181.3687
  0
LINE
  8
17DEG_15
  6
CONTINUOUS
 62
    5
 10
365.16684
 20
183.46867
 11
348.16669
 21
183.46867
  0
LINE
  8
17DEG_15
  6
CONTINUOUS
 62
    5
 10
348.16669
 20
182.46874
 11
365.16684
 21
182.46874
  0
LINE
  8
17DEG_15
  6
CONTINUOUS
 62
    5
 10
348.16669
 20
183.46867
 11
348.16669
 21
182.46874
  0
LINE
  8
17DEG_15
  6
CONTINUOUS
 62
    5
 10
411.06615
 20
157.0793
 11
394.06618
 21
157.0793
  0
LINE
  8
17DEG_15
  6
CONTINUOUS
 62
    5
 10
394.06618
 20
157.0793
 11
394.06618
 21
156.07924
  0
LINE
  8
17DEG_15
  6
CONTINUOUS
 62
    5
 10
411.06615
 20
158.57931
 11
411.06615
 21
154.57927
  0
LINE
  8
17DEG_15
  6
CONTINUOUS
 62
    5
 10
436.0662
 20
158.12924
 11
426.15276
 21
158.12924
  0
LINE
  8
17DEG_15
  6
CONTINUOUS
 62
    5
 10
426.06612
 20
158.17921
 11
426.15276
 21
158.12924
  0
LINE
  8
17DEG_15
  6
CONTINUOUS
 62
    5
 10
426.06612
 20
158.17921
 11
416.06607
 21
158.17921
  0
LINE
  8
17DEG_15
  6
CONTINUOUS
 62
    5
 10
426.06612
 20
154.97921
 11
426.15276
 21
155.02923
  0
LINE
  8
17DEG_15
  6
CONTINUOUS
 62
    5
 10
416.06607
 20
154.97921
 11
426.06612
 21
154.97921
  0
LINE
  8
17DEG_15
  6
DASHED1
 62
    5
 10
411.06615
 20
154.57927
 11
414.06621
 21
154.57927
  0
LINE
  8
17DEG_15
  6
DASHED1
 62
    5
 10
436.0662
 20
158.12924
 11
436.0662
 21
155.02923
  0
LINE
  8
17DEG_15
  6
CONTINUOUS
 62
    5
 10
411.46614
 20
157.37922
 11
411.46614
 21
155.77925
  0
LINE
  8
17DEG_15
  6
CONTINUOUS
 62
    5
 10
411.06615
 20
154.57927
 11
416.06607
 21
154.57927
  0
LINE
  8
17DEG_15
  6
CONTINUOUS
 62
    5
 10
416.06607
 20
158.17921
 11
416.06607
 21
158.57931
  0
LINE
  8
17DEG_15
  6
CONTINUOUS
 62
    5
 10
416.06607
 20
154.57927
 11
416.06607
 21
154.97921
  0
LINE
  8
17DEG_15
  6
CONTINUOUS
 62
    5
 10
432.10948
 20
156.17924
 11
436.0662
 21
155.37925
  0
LINE
  8
17DEG_15
  6
CONTINUOUS
 62
    5
 10
431.06614
 20
156.17924
 11
432.10948
 21
156.17924
  0
LINE
  8
17DEG_15
  6
CONTINUOUS
 62
    5
 10
432.10948
 20
156.97918
 11
436.0662
 21
157.77932
  0
LINE
  8
17DEG_15
  6
CONTINUOUS
 62
    5
 10
431.06614
 20
156.97918
 11
432.10948
 21
156.97918
  0
LINE
  8
17DEG_15
  6
CONTINUOUS
 62
    5
 10
411.46614
 20
155.77925
 11
431.01617
 21
155.77925
  0
LINE
  8
17DEG_15
  6
CONTINUOUS
 62
    5
 10
431.06614
 20
155.82922
 11
431.06614
 21
156.17924
  0
LINE
  8
17DEG_15
  6
CONTINUOUS
 62
    5
 10
431.01617
 20
157.37922
 11
411.46614
 21
157.37922
  0
LINE
  8
17DEG_15
  6
CONTINUOUS
 62
    5
 10
431.06614
 20
156.97918
 11
431.06614
 21
157.3292
  0
LINE
  8
17DEG_15
  6
CONTINUOUS
 62
    5
 10
426.15276
 20
155.02923
 11
436.0662
 21
155.02923
  0
LINE
  8
17DEG_15
  6
CONTINUOUS
 62
    7
 10
416.06607
 20
158.17921
 11
416.06607
 21
154.97921
  0
LINE
  8
17DEG_15
  6
CONTINUOUS
 62
    5
 10
401.34368
 20
162.46869
 11
401.34368
 21
162.86879
  0
LINE
  8
17DEG_15
  6
CONTINUOUS
 62
    5
 10
401.34368
 20
166.06874
 11
401.34368
 21
166.46873
  0
LINE
  8
17DEG_15
  6
CONTINUOUS
 62
    5
 10
396.34373
 20
162.46869
 11
401.34368
 21
162.46869
  0
LINE
  8
17DEG_15
  6
CONTINUOUS
 62
    5
 10
401.34368
 20
166.46873
 11
396.34373
 21
166.46873
  0
LINE
  8
17DEG_15
  6
CONTINUOUS
 62
    5
 10
396.34373
 20
166.46873
 11
396.34373
 21
162.46869
  0
LINE
  8
17DEG_15
  6
CONTINUOUS
 62
    5
 10
396.74365
 20
165.26881
 11
396.74365
 21
163.66867
  0
LINE
  8
17DEG_15
  6
CONTINUOUS
 62
    5
 10
423.34364
 20
166.06874
 11
423.43036
 21
166.01877
  0
LINE
  8
17DEG_15
  6
CONTINUOUS
 62
    5
 10
423.34364
 20
166.06874
 11
401.34368
 21
166.06874
  0
LINE
  8
17DEG_15
  6
CONTINUOUS
 62
    5
 10
423.34364
 20
162.86879
 11
423.43036
 21
162.91876
  0
LINE
  8
17DEG_15
  6
CONTINUOUS
 62
    5
 10
401.34368
 20
162.86879
 11
423.34364
 21
162.86879
  0
LINE
  8
17DEG_15
  6
CONTINUOUS
 62
    5
 10
423.43036
 20
162.91876
 11
433.34369
 21
162.91876
  0
LINE
  8
17DEG_15
  6
CONTINUOUS
 62
    5
 10
433.34369
 20
166.01877
 11
423.43036
 21
166.01877
  0
LINE
  8
17DEG_15
  6
CONTINUOUS
 62
    5
 10
433.34369
 20
166.01877
 11
433.34369
 21
165.41769
  0
LINE
  8
17DEG_15
  6
CONTINUOUS
 62
    5
 10
433.34369
 20
163.52915
 11
433.34369
 21
162.91876
  0
LINE
  8
17DEG_15
  6
CONTINUOUS
 62
    5
 10
426.95839
 20
164.88335
 11
433.34369
 21
165.41769
  0
LINE
  8
17DEG_15
  6
CONTINUOUS
 62
    5
 10
426.95839
 20
164.08337
 11
433.34369
 21
163.52915
  0
LINE
  8
17DEG_15
  6
DASHED1
 62
    5
 10
396.34373
 20
162.46869
 11
399.34361
 21
162.46869
  0
LINE
  8
17DEG_15
  6
CONTINUOUS
 62
    5
 10
426.03767
 20
164.86876
 11
426.95839
 21
164.88335
  0
LINE
  8
17DEG_15
  6
CONTINUOUS
 62
    5
 10
426.03767
 20
164.06877
 11
426.95839
 21
164.08337
  0
LINE
  8
17DEG_15
  6
CONTINUOUS
 62
    5
 10
425.98759
 20
165.26881
 11
396.74365
 21
165.26881
  0
LINE
  8
17DEG_15
  6
CONTINUOUS
 62
    5
 10
426.03767
 20
164.86876
 11
426.03767
 21
165.21878
  0
LINE
  8
17DEG_15
  6
CONTINUOUS
 62
    5
 10
426.03767
 20
163.71875
 11
426.03767
 21
164.06877
  0
LINE
  8
17DEG_15
  6
CONTINUOUS
 62
    7
 10
401.34368
 20
166.06874
 11
401.34368
 21
162.86879
  0
LINE
  8
17DEG_15
  6
CONTINUOUS
 62
    5
 10
396.34373
 20
164.96871
 11
379.34362
 21
164.96871
  0
LINE
  8
17DEG_15
  6
CONTINUOUS
 62
    5
 10
379.34362
 20
163.96869
 11
396.34373
 21
163.96869
  0
LINE
  8
17DEG_15
  6
CONTINUOUS
 62
    5
 10
379.34362
 20
164.96871
 11
379.34362
 21
163.96869
  0
LINE
  8
17DEG_15
  6
CONTINUOUS
 62
    5
 10
429.48947
 20
146.96868
 11
429.48947
 21
147.36878
  0
LINE
  8
17DEG_15
  6
CONTINUOUS
 62
    5
 10
429.48947
 20
150.56873
 11
429.48947
 21
150.96872
  0
LINE
  8
17DEG_15
  6
CONTINUOUS
 62
    5
 10
424.48955
 20
146.96868
 11
429.48947
 21
146.96868
  0
LINE
  8
17DEG_15
  6
CONTINUOUS
 62
    5
 10
429.48947
 20
150.96872
 11
424.48955
 21
150.96872
  0
LINE
  8
17DEG_15
  6
CONTINUOUS
 62
    5
 10
424.48955
 20
150.96872
 11
424.48955
 21
146.96868
  0
LINE
  8
17DEG_15
  6
CONTINUOUS
 62
    5
 10
424.88955
 20
149.76879
 11
424.88955
 21
148.16866
  0
LINE
  8
17DEG_15
  6
CONTINUOUS
 62
    5
 10
451.48954
 20
150.56873
 11
451.57615
 21
150.51875
  0
LINE
  8
17DEG_15
  6
CONTINUOUS
 62
    5
 10
451.48954
 20
150.56873
 11
429.48947
 21
150.56873
  0
LINE
  8
17DEG_15
  6
CONTINUOUS
 62
    5
 10
451.48954
 20
147.36878
 11
451.57615
 21
147.41875
  0
LINE
  8
17DEG_15
  6
CONTINUOUS
 62
    5
 10
429.48947
 20
147.36878
 11
451.48954
 21
147.36878
  0
LINE
  8
17DEG_15
  6
CONTINUOUS
 62
    5
 10
451.57615
 20
147.41875
 11
461.48959
 21
147.41875
  0
LINE
  8
17DEG_15
  6
CONTINUOUS
 62
    5
 10
461.48959
 20
150.51875
 11
451.57615
 21
150.51875
  0
LINE
  8
17DEG_15
  6
CONTINUOUS
 62
    5
 10
461.48959
 20
150.51875
 11
461.48959
 21
149.91766
  0
LINE
  8
17DEG_15
  6
CONTINUOUS
 62
    5
 10
461.48959
 20
148.02914
 11
461.48959
 21
147.41875
  0
LINE
  8
17DEG_15
  6
CONTINUOUS
 62
    5
 10
455.10418
 20
149.38345
 11
461.48959
 21
149.91766
  0
LINE
  8
17DEG_15
  6
CONTINUOUS
 62
    5
 10
455.10418
 20
148.58335
 11
461.48959
 21
148.02914
  0
LINE
  8
17DEG_15
  6
DASHED1
 62
    5
 10
424.48955
 20
146.96868
 11
427.48961
 21
146.96868
  0
LINE
  8
17DEG_15
  6
CONTINUOUS
 62
    5
 10
454.18346
 20
149.36875
 11
455.10418
 21
149.38345
  0
LINE
  8
17DEG_15
  6
CONTINUOUS
 62
    5
 10
454.18346
 20
148.56876
 11
455.10418
 21
148.58335
  0
LINE
  8
17DEG_15
  6
CONTINUOUS
 62
    5
 10
454.13349
 20
149.76879
 11
424.88955
 21
149.76879
  0
LINE
  8
17DEG_15
  6
CONTINUOUS
 62
    5
 10
454.18346
 20
149.36875
 11
454.18346
 21
149.71877
  0
LINE
  8
17DEG_15
  6
CONTINUOUS
 62
    5
 10
454.18346
 20
148.21874
 11
454.18346
 21
148.56876
  0
LINE
  8
17DEG_15
  6
CONTINUOUS
 62
    5
 10
424.88955
 20
148.16866
 11
454.13349
 21
148.16866
  0
LINE
  8
17DEG_15
  6
CONTINUOUS
 62
    7
 10
429.48947
 20
150.56873
 11
429.48947
 21
147.36878
  0
LINE
  8
17DEG_15
  6
CONTINUOUS
 62
    5
 10
424.48955
 20
149.46869
 11
407.48965
 21
149.46869
  0
LINE
  8
17DEG_15
  6
CONTINUOUS
 62
    5
 10
407.48965
 20
148.46871
 11
424.48955
 21
148.46871
  0
LINE
  8
17DEG_15
  6
CONTINUOUS
 62
    5
 10
407.48965
 20
149.46869
 11
407.48965
 21
148.46871
  0
LINE
  8
17DEG_15
  6
CONTINUOUS
 62
    7
 10
452.08197
 20
93.968701
 11
432.08201
 21
93.968701
  0
LINE
  8
17DEG_15
  6
CONTINUOUS
 62
    7
 10
432.08201
 20
93.968701
 11
432.08201
 21
91.968742
  0
LINE
  8
17DEG_15
  6
CONTINUOUS
 62
    7
 10
432.08201
 20
91.968742
 11
452.08197
 21
91.968742
  0
LINE
  8
17DEG_15
  6
CONTINUOUS
 62
    7
 10
452.08197
 20
91.968742
 11
452.08197
 21
93.968701
  0
LINE
  8
17DEG_15
  6
CONTINUOUS
 62
    5
 10
272.06904
 20
237.59373
 11
255.06909
 21
237.59373
  0
LINE
  8
17DEG_15
  6
CONTINUOUS
 62
    5
 10
255.06909
 20
236.59369
 11
272.06904
 21
236.59369
  0
LINE
  8
17DEG_15
  6
CONTINUOUS
 62
    5
 10
255.06909
 20
237.59373
 11
255.06909
 21
236.59369
  0
LINE
  8
17DEG_15
  6
CONTINUOUS
 62
    5
 10
272.06904
 20
239.0937
 11
272.06904
 21
235.09366
  0
LINE
  8
17DEG_15
  6
CONTINUOUS
 62
    5
 10
297.06911
 20
238.64381
 11
287.15573
 21
238.64381
  0
LINE
  8
17DEG_15
  6
CONTINUOUS
 62
    5
 10
287.06908
 20
238.69378
 11
287.15573
 21
238.64381
  0
LINE
  8
17DEG_15
  6
CONTINUOUS
 62
    5
 10
287.06908
 20
238.69378
 11
277.06907
 21
238.69378
  0
LINE
  8
17DEG_15
  6
CONTINUOUS
 62
    5
 10
287.06908
 20
235.49378
 11
287.15573
 21
235.54375
  0
LINE
  8
17DEG_15
  6
CONTINUOUS
 62
    5
 10
277.06907
 20
235.49378
 11
287.06908
 21
235.49378
  0
LINE
  8
17DEG_15
  6
DASHED1
 62
    5
 10
272.06904
 20
235.09366
 11
275.06904
 21
235.09366
  0
LINE
  8
17DEG_15
  6
DASHED1
 62
    5
 10
297.06911
 20
238.64381
 11
297.06911
 21
235.54375
  0
LINE
  8
17DEG_15
  6
CONTINUOUS
 62
    5
 10
272.46902
 20
237.89379
 11
272.46902
 21
236.29377
  0
LINE
  8
17DEG_15
  6
CONTINUOUS
 62
    5
 10
277.06907
 20
239.0937
 11
272.06904
 21
239.0937
  0
LINE
  8
17DEG_15
  6
CONTINUOUS
 62
    5
 10
272.06904
 20
235.09366
 11
277.06907
 21
235.09366
  0
LINE
  8
17DEG_15
  6
CONTINUOUS
 62
    5
 10
277.06907
 20
238.69378
 11
277.06907
 21
239.0937
  0
LINE
  8
17DEG_15
  6
CONTINUOUS
 62
    5
 10
277.06907
 20
235.09366
 11
277.06907
 21
235.49378
  0
LINE
  8
17DEG_15
  6
CONTINUOUS
 62
    5
 10
293.11236
 20
236.69374
 11
297.06911
 21
235.89381
  0
LINE
  8
17DEG_15
  6
CONTINUOUS
 62
    5
 10
292.06909
 20
236.69374
 11
293.11236
 21
236.69374
  0
LINE
  8
17DEG_15
  6
CONTINUOUS
 62
    5
 10
293.11236
 20
237.49373
 11
297.06911
 21
238.29372
  0
LINE
  8
17DEG_15
  6
CONTINUOUS
 62
    5
 10
292.06909
 20
237.49373
 11
293.11236
 21
237.49373
  0
LINE
  8
17DEG_15
  6
CONTINUOUS
 62
    5
 10
272.46902
 20
236.29377
 11
292.01911
 21
236.29377
  0
LINE
  8
17DEG_15
  6
CONTINUOUS
 62
    5
 10
292.06909
 20
236.34374
 11
292.06909
 21
236.69374
  0
LINE
  8
17DEG_15
  6
CONTINUOUS
 62
    5
 10
292.01911
 20
237.89379
 11
272.46902
 21
237.89379
  0
LINE
  8
17DEG_15
  6
CONTINUOUS
 62
    5
 10
292.06909
 20
237.49373
 11
292.06909
 21
237.84377
  0
LINE
  8
17DEG_15
  6
CONTINUOUS
 62
    5
 10
287.15573
 20
235.54375
 11
297.06911
 21
235.54375
  0
LINE
  8
17DEG_15
  6
CONTINUOUS
 62
    7
 10
277.06907
 20
238.69378
 11
277.06907
 21
235.49378
  0
LINE
  8
17DEG_15
  6
CONTINUOUS
 62
    5
 10
298.48284
 20
222.46872
 11
281.4828
 21
222.46872
  0
LINE
  8
17DEG_15
  6
CONTINUOUS
 62
    5
 10
281.4828
 20
221.4687
 11
298.48284
 21
221.4687
  0
LINE
  8
17DEG_15
  6
CONTINUOUS
 62
    5
 10
281.4828
 20
222.46872
 11
281.4828
 21
221.4687
  0
LINE
  8
17DEG_15
  6
CONTINUOUS
 62
    5
 10
298.48284
 20
223.9687
 11
298.48284
 21
219.96876
  0
LINE
  8
17DEG_15
  6
CONTINUOUS
 62
    5
 10
323.48279
 20
223.51875
 11
313.56946
 21
223.51875
  0
LINE
  8
17DEG_15
  6
CONTINUOUS
 62
    5
 10
313.48274
 20
223.56876
 11
313.56946
 21
223.51875
  0
LINE
  8
17DEG_15
  6
CONTINUOUS
 62
    5
 10
313.48274
 20
223.56876
 11
303.48286
 21
223.56876
  0
LINE
  8
17DEG_15
  6
CONTINUOUS
 62
    5
 10
313.48274
 20
220.36876
 11
313.56946
 21
220.41873
  0
LINE
  8
17DEG_15
  6
CONTINUOUS
 62
    5
 10
303.48286
 20
220.36876
 11
313.48274
 21
220.36876
  0
LINE
  8
17DEG_15
  6
DASHED1
 62
    5
 10
298.48284
 20
219.96876
 11
301.48283
 21
219.96876
  0
LINE
  8
17DEG_15
  6
DASHED1
 62
    5
 10
323.48279
 20
223.51875
 11
323.48279
 21
220.41873
  0
LINE
  8
17DEG_15
  6
CONTINUOUS
 62
    5
 10
298.88283
 20
222.76877
 11
298.88283
 21
221.16874
  0
LINE
  8
17DEG_15
  6
CONTINUOUS
 62
    5
 10
303.48286
 20
223.9687
 11
298.48284
 21
223.9687
  0
LINE
  8
17DEG_15
  6
CONTINUOUS
 62
    5
 10
298.48284
 20
219.96876
 11
303.48286
 21
219.96876
  0
LINE
  8
17DEG_15
  6
CONTINUOUS
 62
    5
 10
303.48286
 20
223.56876
 11
303.48286
 21
223.9687
  0
LINE
  8
17DEG_15
  6
CONTINUOUS
 62
    5
 10
303.48286
 20
219.96876
 11
303.48286
 21
220.36876
  0
LINE
  8
17DEG_15
  6
CONTINUOUS
 62
    5
 10
319.52624
 20
221.56879
 11
323.48279
 21
220.76875
  0
LINE
  8
17DEG_15
  6
CONTINUOUS
 62
    5
 10
318.48287
 20
221.56879
 11
319.52624
 21
221.56879
  0
LINE
  8
17DEG_15
  6
CONTINUOUS
 62
    5
 10
319.52624
 20
222.36878
 11
323.48279
 21
223.16871
  0
LINE
  8
17DEG_15
  6
CONTINUOUS
 62
    5
 10
318.48287
 20
222.36878
 11
319.52624
 21
222.36878
  0
LINE
  8
17DEG_15
  6
CONTINUOUS
 62
    5
 10
298.88283
 20
221.16874
 11
318.43279
 21
221.16874
  0
LINE
  8
17DEG_15
  6
CONTINUOUS
 62
    5
 10
318.48287
 20
221.21872
 11
318.48287
 21
221.56879
  0
LINE
  8
17DEG_15
  6
CONTINUOUS
 62
    5
 10
318.43279
 20
222.76877
 11
298.88283
 21
222.76877
  0
LINE
  8
17DEG_15
  6
CONTINUOUS
 62
    5
 10
318.48287
 20
222.36878
 11
318.48287
 21
222.71876
  0
LINE
  8
17DEG_15
  6
CONTINUOUS
 62
    5
 10
313.56946
 20
220.41873
 11
323.48279
 21
220.41873
  0
LINE
  8
17DEG_15
  6
CONTINUOUS
 62
    7
 10
303.48286
 20
223.56876
 11
303.48286
 21
220.36876
  0
LINE
  8
17DEG_15
  6
CONTINUOUS
 62
    5
 10
324.46359
 20
207.34372
 11
307.46352
 21
207.34372
  0
LINE
  8
17DEG_15
  6
CONTINUOUS
 62
    5
 10
307.46352
 20
206.34368
 11
324.46359
 21
206.34368
  0
LINE
  8
17DEG_15
  6
CONTINUOUS
 62
    5
 10
307.46352
 20
207.34372
 11
307.46352
 21
206.34368
  0
LINE
  8
17DEG_15
  6
CONTINUOUS
 62
    5
 10
324.46359
 20
208.84374
 11
324.46359
 21
204.84376
  0
LINE
  8
17DEG_15
  6
CONTINUOUS
 62
    5
 10
349.46357
 20
208.39378
 11
339.55024
 21
208.39378
  0
LINE
  8
17DEG_15
  6
CONTINUOUS
 62
    5
 10
339.46353
 20
208.44375
 11
339.55024
 21
208.39378
  0
LINE
  8
17DEG_15
  6
CONTINUOUS
 62
    5
 10
339.46353
 20
208.44375
 11
329.46355
 21
208.44375
  0
LINE
  8
17DEG_15
  6
CONTINUOUS
 62
    5
 10
339.46353
 20
205.24375
 11
339.55024
 21
205.29372
  0
LINE
  8
17DEG_15
  6
CONTINUOUS
 62
    5
 10
329.46355
 20
205.24375
 11
339.46353
 21
205.24375
  0
LINE
  8
17DEG_15
  6
DASHED1
 62
    5
 10
324.46359
 20
204.84376
 11
327.46361
 21
204.84376
  0
LINE
  8
17DEG_15
  6
DASHED1
 62
    5
 10
349.46357
 20
208.39378
 11
349.46357
 21
205.29372
  0
LINE
  8
17DEG_15
  6
CONTINUOUS
 62
    5
 10
324.86355
 20
207.64376
 11
324.86355
 21
206.04374
  0
LINE
  8
17DEG_15
  6
CONTINUOUS
 62
    5
 10
329.46355
 20
208.84374
 11
324.46359
 21
208.84374
  0
LINE
  8
17DEG_15
  6
CONTINUOUS
 62
    5
 10
324.46359
 20
204.84376
 11
329.46355
 21
204.84376
  0
LINE
  8
17DEG_15
  6
CONTINUOUS
 62
    5
 10
329.46355
 20
208.44375
 11
329.46355
 21
208.84374
  0
LINE
  8
17DEG_15
  6
CONTINUOUS
 62
    5
 10
329.46355
 20
204.84376
 11
329.46355
 21
205.24375
  0
LINE
  8
17DEG_15
  6
CONTINUOUS
 62
    5
 10
345.50689
 20
206.44373
 11
349.46357
 21
205.64374
  0
LINE
  8
17DEG_15
  6
CONTINUOUS
 62
    5
 10
344.46362
 20
206.44373
 11
345.50689
 21
206.44373
  0
LINE
  8
17DEG_15
  6
CONTINUOUS
 62
    5
 10
345.50689
 20
207.24377
 11
349.46357
 21
208.04376
  0
LINE
  8
17DEG_15
  6
CONTINUOUS
 62
    5
 10
344.46362
 20
207.24377
 11
345.50689
 21
207.24377
  0
LINE
  8
17DEG_15
  6
CONTINUOUS
 62
    5
 10
324.86355
 20
206.04374
 11
344.41358
 21
206.04374
  0
LINE
  8
17DEG_15
  6
CONTINUOUS
 62
    5
 10
344.46362
 20
206.09371
 11
344.46362
 21
206.44373
  0
LINE
  8
17DEG_15
  6
CONTINUOUS
 62
    5
 10
344.41358
 20
207.64376
 11
324.86355
 21
207.64376
  0
LINE
  8
17DEG_15
  6
CONTINUOUS
 62
    5
 10
344.46362
 20
207.24377
 11
344.46362
 21
207.59374
  0
LINE
  8
17DEG_15
  6
CONTINUOUS
 62
    5
 10
339.55024
 20
205.29372
 11
349.46357
 21
205.29372
  0
LINE
  8
17DEG_15
  6
CONTINUOUS
 62
    7
 10
329.46355
 20
208.44375
 11
329.46355
 21
205.24375
  0
LINE
  8
17DEG_15
  6
CONTINUOUS
 62
    5
 10
351.74347
 20
191.59368
 11
334.74329
 21
191.59368
  0
LINE
  8
17DEG_15
  6
CONTINUOUS
 62
    5
 10
334.74329
 20
190.5937
 11
351.74347
 21
190.5937
  0
LINE
  8
17DEG_15
  6
CONTINUOUS
 62
    5
 10
334.74329
 20
191.59368
 11
334.74329
 21
190.5937
  0
LINE
  8
17DEG_15
  6
CONTINUOUS
 62
    5
 10
351.74347
 20
193.09371
 11
351.74347
 21
189.09372
  0
LINE
  8
17DEG_15
  6
CONTINUOUS
 62
    5
 10
376.74341
 20
192.64374
 11
366.83001
 21
192.64374
  0
LINE
  8
17DEG_15
  6
CONTINUOUS
 62
    5
 10
366.74337
 20
192.69372
 11
366.83001
 21
192.64374
  0
LINE
  8
17DEG_15
  6
CONTINUOUS
 62
    5
 10
366.74337
 20
192.69372
 11
356.74335
 21
192.69372
  0
LINE
  8
17DEG_15
  6
CONTINUOUS
 62
    5
 10
366.74337
 20
189.49372
 11
366.83001
 21
189.54374
  0
LINE
  8
17DEG_15
  6
CONTINUOUS
 62
    5
 10
356.74335
 20
189.49372
 11
366.74337
 21
189.49372
  0
LINE
  8
17DEG_15
  6
DASHED1
 62
    5
 10
351.74347
 20
189.09372
 11
354.74335
 21
189.09372
  0
LINE
  8
17DEG_15
  6
DASHED1
 62
    5
 10
376.74341
 20
192.64374
 11
376.74341
 21
189.54374
  0
LINE
  8
17DEG_15
  6
CONTINUOUS
 62
    5
 10
352.14343
 20
191.89373
 11
352.14343
 21
190.2937
  0
LINE
  8
17DEG_15
  6
CONTINUOUS
 62
    5
 10
356.74335
 20
193.09371
 11
351.74347
 21
193.09371
  0
LINE
  8
17DEG_15
  6
CONTINUOUS
 62
    5
 10
351.74347
 20
189.09372
 11
356.74335
 21
189.09372
  0
LINE
  8
17DEG_15
  6
CONTINUOUS
 62
    5
 10
356.74335
 20
192.69372
 11
356.74335
 21
193.09371
  0
LINE
  8
17DEG_15
  6
CONTINUOUS
 62
    5
 10
356.74335
 20
189.09372
 11
356.74335
 21
189.49372
  0
LINE
  8
17DEG_15
  6
CONTINUOUS
 62
    5
 10
372.78666
 20
190.69375
 11
376.74341
 21
189.89376
  0
LINE
  8
17DEG_15
  6
CONTINUOUS
 62
    5
 10
371.74342
 20
190.69375
 11
372.78666
 21
190.69375
  0
LINE
  8
17DEG_15
  6
CONTINUOUS
 62
    5
 10
372.78666
 20
191.49374
 11
376.74341
 21
192.29372
  0
LINE
  8
17DEG_15
  6
CONTINUOUS
 62
    5
 10
371.74342
 20
191.49374
 11
372.78666
 21
191.49374
  0
LINE
  8
17DEG_15
  6
CONTINUOUS
 62
    5
 10
352.14343
 20
190.2937
 11
371.69342
 21
190.2937
  0
LINE
  8
17DEG_15
  6
CONTINUOUS
 62
    5
 10
371.74342
 20
190.34373
 11
371.74342
 21
190.69375
  0
LINE
  8
17DEG_15
  6
CONTINUOUS
 62
    5
 10
371.69342
 20
191.89373
 11
352.14343
 21
191.89373
  0
LINE
  8
17DEG_15
  6
CONTINUOUS
 62
    5
 10
371.74342
 20
191.49374
 11
371.74342
 21
191.8437
  0
LINE
  8
17DEG_15
  6
CONTINUOUS
 62
    5
 10
366.83001
 20
189.54374
 11
376.74341
 21
189.54374
  0
LINE
  8
17DEG_15
  6
CONTINUOUS
 62
    7
 10
356.74335
 20
192.69372
 11
356.74335
 21
189.49372
  0
LINE
  8
17DEG_15
  6
CONTINUOUS
 62
    5
 10
379.88919
 20
174.46871
 11
362.88918
 21
174.46871
  0
LINE
  8
17DEG_15
  6
CONTINUOUS
 62
    5
 10
362.88918
 20
173.46873
 11
379.88919
 21
173.46873
  0
LINE
  8
17DEG_15
  6
CONTINUOUS
 62
    5
 10
362.88918
 20
174.46871
 11
362.88918
 21
173.46873
  0
LINE
  8
17DEG_15
  6
CONTINUOUS
 62
    5
 10
379.88919
 20
175.96869
 11
379.88919
 21
171.96875
  0
LINE
  8
17DEG_15
  6
CONTINUOUS
 62
    5
 10
404.88928
 20
175.51872
 11
394.97581
 21
175.51872
  0
LINE
  8
17DEG_15
  6
CONTINUOUS
 62
    5
 10
394.88926
 20
175.56874
 11
394.97581
 21
175.51872
  0
LINE
  8
17DEG_15
  6
CONTINUOUS
 62
    5
 10
394.88926
 20
175.56874
 11
384.88921
 21
175.56874
  0
LINE
  8
17DEG_15
  6
CONTINUOUS
 62
    5
 10
394.88926
 20
172.36874
 11
394.97581
 21
172.41872
  0
LINE
  8
17DEG_15
  6
CONTINUOUS
 62
    5
 10
384.88921
 20
172.36874
 11
394.88926
 21
172.36874
  0
LINE
  8
17DEG_15
  6
DASHED1
 62
    5
 10
379.88919
 20
171.96875
 11
382.88925
 21
171.96875
  0
LINE
  8
17DEG_15
  6
DASHED1
 62
    5
 10
404.88928
 20
175.51872
 11
404.88928
 21
172.41872
  0
LINE
  8
17DEG_15
  6
CONTINUOUS
 62
    5
 10
380.28922
 20
174.76876
 11
380.28922
 21
173.16873
  0
LINE
  8
17DEG_15
  6
CONTINUOUS
 62
    5
 10
384.88921
 20
175.96869
 11
379.88919
 21
175.96869
  0
LINE
  8
17DEG_15
  6
CONTINUOUS
 62
    5
 10
379.88919
 20
171.96875
 11
384.88921
 21
171.96875
  0
LINE
  8
17DEG_15
  6
CONTINUOUS
 62
    5
 10
384.88921
 20
175.56874
 11
384.88921
 21
175.96869
  0
LINE
  8
17DEG_15
  6
CONTINUOUS
 62
    5
 10
384.88921
 20
171.96875
 11
384.88921
 21
172.36874
  0
LINE
  8
17DEG_15
  6
CONTINUOUS
 62
    5
 10
400.93256
 20
173.56872
 11
404.88928
 21
172.76874
  0
LINE
  8
17DEG_15
  6
CONTINUOUS
 62
    5
 10
399.88922
 20
173.56872
 11
400.93256
 21
173.56872
  0
LINE
  8
17DEG_15
  6
CONTINUOUS
 62
    5
 10
400.93256
 20
174.36876
 11
404.88928
 21
175.16875
  0
LINE
  8
17DEG_15
  6
CONTINUOUS
 62
    5
 10
399.88922
 20
174.36876
 11
400.93256
 21
174.36876
  0
LINE
  8
17DEG_15
  6
CONTINUOUS
 62
    5
 10
380.28922
 20
173.16873
 11
399.83914
 21
173.16873
  0
LINE
  8
17DEG_15
  6
CONTINUOUS
 62
    5
 10
399.88922
 20
173.2187
 11
399.88922
 21
173.56872
  0
LINE
  8
17DEG_15
  6
CONTINUOUS
 62
    5
 10
399.83914
 20
174.76876
 11
380.28922
 21
174.76876
  0
LINE
  8
17DEG_15
  6
CONTINUOUS
 62
    5
 10
399.88922
 20
174.36876
 11
399.88922
 21
174.71873
  0
LINE
  8
17DEG_15
  6
CONTINUOUS
 62
    5
 10
394.97581
 20
172.41872
 11
404.88928
 21
172.41872
  0
LINE
  8
17DEG_15
  6
CONTINUOUS
 62
    7
 10
384.88921
 20
175.56874
 11
384.88921
 21
172.36874
  0
LINE
  8
17DEG_15
  6
CONTINUOUS
 62
    5
 10
290.49245
 20
227.46869
 11
290.49245
 21
227.86876
  0
LINE
  8
17DEG_15
  6
CONTINUOUS
 62
    5
 10
290.49245
 20
231.06876
 11
290.49245
 21
231.46873
  0
LINE
  8
17DEG_15
  6
CONTINUOUS
 62
    5
 10
285.49245
 20
227.46869
 11
290.49245
 21
227.46869
  0
LINE
  8
17DEG_15
  6
CONTINUOUS
 62
    5
 10
290.49245
 20
231.46873
 11
285.49245
 21
231.46873
  0
LINE
  8
17DEG_15
  6
CONTINUOUS
 62
    5
 10
285.49245
 20
231.46873
 11
285.49245
 21
227.46869
  0
LINE
  8
17DEG_15
  6
CONTINUOUS
 62
    5
 10
285.89253
 20
230.26877
 11
285.89253
 21
228.66874
  0
LINE
  8
17DEG_15
  6
CONTINUOUS
 62
    5
 10
312.49248
 20
231.06876
 11
312.57899
 21
231.01878
  0
LINE
  8
17DEG_15
  6
CONTINUOUS
 62
    5
 10
312.49248
 20
231.06876
 11
290.49245
 21
231.06876
  0
LINE
  8
17DEG_15
  6
CONTINUOUS
 62
    5
 10
312.49248
 20
227.86876
 11
312.57899
 21
227.91873
  0
LINE
  8
17DEG_15
  6
CONTINUOUS
 62
    5
 10
290.49245
 20
227.86876
 11
312.49248
 21
227.86876
  0
LINE
  8
17DEG_15
  6
CONTINUOUS
 62
    5
 10
312.57899
 20
227.91873
 11
322.49253
 21
227.91873
  0
LINE
  8
17DEG_15
  6
CONTINUOUS
 62
    5
 10
322.49253
 20
231.01878
 11
312.57899
 21
231.01878
  0
LINE
  8
17DEG_15
  6
CONTINUOUS
 62
    5
 10
322.49253
 20
231.01878
 11
322.49253
 21
230.41774
  0
LINE
  8
17DEG_15
  6
CONTINUOUS
 62
    5
 10
322.49253
 20
228.52915
 11
322.49253
 21
227.91873
  0
LINE
  8
17DEG_15
  6
CONTINUOUS
 62
    5
 10
316.10712
 20
229.88341
 11
322.49253
 21
230.41774
  0
LINE
  8
17DEG_15
  6
CONTINUOUS
 62
    5
 10
316.10712
 20
229.08342
 11
322.49253
 21
228.52915
  0
LINE
  8
17DEG_15
  6
DASHED1
 62
    5
 10
285.49245
 20
227.46869
 11
288.49245
 21
227.46869
  0
LINE
  8
17DEG_15
  6
CONTINUOUS
 62
    5
 10
315.1864
 20
229.86871
 11
316.10712
 21
229.88341
  0
LINE
  8
17DEG_15
  6
CONTINUOUS
 62
    5
 10
315.1864
 20
229.06872
 11
316.10712
 21
229.08342
  0
LINE
  8
17DEG_15
  6
CONTINUOUS
 62
    5
 10
315.13636
 20
230.26877
 11
285.89253
 21
230.26877
  0
LINE
  8
17DEG_15
  6
CONTINUOUS
 62
    5
 10
315.1864
 20
229.86871
 11
315.1864
 21
230.21875
  0
LINE
  8
17DEG_15
  6
CONTINUOUS
 62
    5
 10
315.1864
 20
228.71872
 11
315.1864
 21
229.06872
  0
LINE
  8
17DEG_15
  6
CONTINUOUS
 62
    5
 10
285.89253
 20
228.66874
 11
315.13636
 21
228.66874
  0
LINE
  8
17DEG_15
  6
CONTINUOUS
 62
    7
 10
290.49245
 20
231.06876
 11
290.49245
 21
227.86876
  0
LINE
  8
17DEG_15
  6
CONTINUOUS
 62
    5
 10
285.49245
 20
229.96871
 11
268.49251
 21
229.96871
  0
LINE
  8
17DEG_15
  6
CONTINUOUS
 62
    5
 10
268.49251
 20
228.96872
 11
285.49245
 21
228.96872
  0
LINE
  8
17DEG_15
  6
CONTINUOUS
 62
    5
 10
268.49251
 20
229.96871
 11
268.49251
 21
228.96872
  0
LINE
  8
17DEG_15
  6
CONTINUOUS
 62
    5
 10
263.21267
 20
242.96872
 11
263.21267
 21
243.36875
  0
LINE
  8
17DEG_15
  6
CONTINUOUS
 62
    5
 10
263.21267
 20
246.56875
 11
263.21267
 21
246.96871
  0
LINE
  8
17DEG_15
  6
CONTINUOUS
 62
    5
 10
258.21268
 20
242.96872
 11
263.21267
 21
242.96872
  0
LINE
  8
17DEG_15
  6
CONTINUOUS
 62
    5
 10
263.21267
 20
246.96871
 11
258.21268
 21
246.96871
  0
LINE
  8
17DEG_15
  6
CONTINUOUS
 62
    5
 10
258.21268
 20
246.96871
 11
258.21268
 21
242.96872
  0
LINE
  8
17DEG_15
  6
CONTINUOUS
 62
    5
 10
258.61262
 20
245.76871
 11
258.61262
 21
244.16874
  0
LINE
  8
17DEG_15
  6
CONTINUOUS
 62
    5
 10
285.21271
 20
246.56875
 11
285.29922
 21
246.51878
  0
LINE
  8
17DEG_15
  6
CONTINUOUS
 62
    5
 10
285.21271
 20
246.56875
 11
263.21267
 21
246.56875
  0
LINE
  8
17DEG_15
  6
CONTINUOUS
 62
    5
 10
285.21271
 20
243.36875
 11
285.29922
 21
243.41872
  0
LINE
  8
17DEG_15
  6
CONTINUOUS
 62
    5
 10
263.21267
 20
243.36875
 11
285.21271
 21
243.36875
  0
LINE
  8
17DEG_15
  6
CONTINUOUS
 62
    5
 10
285.29922
 20
243.41872
 11
295.21269
 21
243.41872
  0
LINE
  8
17DEG_15
  6
CONTINUOUS
 62
    5
 10
295.21269
 20
246.51878
 11
285.29922
 21
246.51878
  0
LINE
  8
17DEG_15
  6
CONTINUOUS
 62
    5
 10
295.21269
 20
246.51878
 11
295.21269
 21
245.91774
  0
LINE
  8
17DEG_15
  6
CONTINUOUS
 62
    5
 10
295.21269
 20
244.02913
 11
295.21269
 21
243.41872
  0
LINE
  8
17DEG_15
  6
CONTINUOUS
 62
    5
 10
288.82735
 20
245.38336
 11
295.21269
 21
245.91774
  0
LINE
  8
17DEG_15
  6
CONTINUOUS
 62
    5
 10
288.82735
 20
244.58343
 11
295.21269
 21
244.02913
  0
LINE
  8
17DEG_15
  6
DASHED1
 62
    5
 10
258.21268
 20
242.96872
 11
261.21268
 21
242.96872
  0
LINE
  8
17DEG_15
  6
CONTINUOUS
 62
    5
 10
287.90665
 20
245.3687
 11
288.82735
 21
245.38336
  0
LINE
  8
17DEG_15
  6
CONTINUOUS
 62
    5
 10
287.90665
 20
244.56871
 11
288.82735
 21
244.58343
  0
LINE
  8
17DEG_15
  6
CONTINUOUS
 62
    5
 10
287.85661
 20
245.76871
 11
258.61262
 21
245.76871
  0
LINE
  8
17DEG_15
  6
CONTINUOUS
 62
    5
 10
287.90665
 20
245.3687
 11
287.90665
 21
245.71869
  0
LINE
  8
17DEG_15
  6
CONTINUOUS
 62
    5
 10
287.90665
 20
244.21871
 11
287.90665
 21
244.56871
  0
LINE
  8
17DEG_15
  6
CONTINUOUS
 62
    5
 10
258.61262
 20
244.16874
 11
287.85661
 21
244.16874
  0
LINE
  8
17DEG_15
  6
CONTINUOUS
 62
    7
 10
263.21267
 20
246.56875
 11
263.21267
 21
243.36875
  0
LINE
  8
17DEG_15
  6
CONTINUOUS
 62
    5
 10
258.21268
 20
245.46874
 11
241.21274
 21
245.46874
  0
LINE
  8
17DEG_15
  6
CONTINUOUS
 62
    5
 10
241.21274
 20
245.46874
 11
241.21274
 21
244.46873
  0
LINE
  8
ADD_LINE
  6
DOT
 62
    7
 10
463.32665
 20
81.968685
 11
463.32665
 21
1.7294296
  0
LINE
  8
ADD_LINE
  6
DOT
 62
    7
 10
413.32662
 20
81.968685
 11
413.32662
 21
1.7294296
  0
LINE
  8
CATH_TER
  6
CONTINUOUS
 62
    4
 10
463.32665
 20
4.9687299
 11
463.32665
 21
81.968685
  0
LINE
  8
CATH_TER
  6
CONTINUOUS
 62
    4
 10
463.32665
 20
4.9687299
 11
461.92661
 21
4.9687299
  0
LINE
  8
CATH_TER
  6
CONTINUOUS
 62
    4
 10
463.32665
 20
81.968685
 11
461.92661
 21
81.968685
  0
LINE
  8
CATH_TER
  6
CONTINUOUS
 62
    4
 10
463.32665
 20
4.9687299
 11
462.80897
 21
6.9005814
  0
LINE
  8
CATH_TER
  6
CONTINUOUS
 62
    4
 10
463.32665
 20
4.9687299
 11
463.84426
 21
6.9005814
  0
LINE
  8
CATH_TER
  6
CONTINUOUS
 62
    4
 10
463.32665
 20
81.968685
 11
462.80897
 21
80.036835
  0
LINE
  8
CATH_TER
  6
CONTINUOUS
 62
    4
 10
463.32665
 20
81.968685
 11
463.84426
 21
80.036835
  0
LINE
  8
CATH_TER
  6
CONTINUOUS
 62
    4
 10
413.32662
 20
4.9687299
 11
414.72663
 21
4.9687299
  0
LINE
  8
CATH_TER
  6
CONTINUOUS
 62
    4
 10
388.09553
 20
4.9687211
 11
386.31537
 21
4.9687211
  0
LINE
  8
CATH_TER
  6
CONTINUOUS
 62
    4
 10
387.71538
 20
4.9687211
 11
387.19773
 21
6.9005726
  0
LINE
  8
CATH_TER
  6
CONTINUOUS
 62
    4
 10
387.71538
 20
4.9687211
 11
388.23303
 21
6.9005726
  0
LINE
  8
CATH_TER
  6
CONTINUOUS
 62
    4
 10
387.71538
 20
84.968689
 11
387.19773
 21
83.036839
  0
LINE
  8
CATH_TER
  6
CONTINUOUS
 62
    4
 10
387.71538
 20
84.968689
 11
388.23303
 21
83.036839
  0
LINE
  8
ADD_LINE
  6
DOT
 62
    7
 10
358.83305
 20
81.968685
 11
358.83305
 21
3.0335905
  0
LINE
  8
_K_X__
  6
CONTINUOUS
 62
    7
 10
463.32676
 20
81.968685
 11
363.83664
 21
81.968685
  0
LINE
  8
INNER_SH
  6
CONTINUOUS
 62
    7
 10
367.83665
 20
88.468729
 11
367.83665
 21
84.968689
  0
LINE
  8
INNER_SH
  6
CONTINUOUS
 62
    7
 10
363.83664
 20
88.468729
 11
367.83665
 21
88.468729
  0
LINE
  8
INNER_SH
  6
CONTINUOUS
 62
    7
 10
363.83664
 20
88.468729
 11
363.83664
 21
81.968685
  0
LINE
  8
INNER_SH
  6
CENTER1
 62
    7
 10
425.3266
 20
87.944721
 11
425.3266
 21
78.870415
  0
LINE
  8
INNER_SH
  6
CENTER1
 62
    7
 10
415.32659
 20
87.944721
 11
415.32659
 21
78.870415
  0
LINE
  8
INNER_SH
  6
CENTER1
 62
    7
 10
405.32657
 20
87.944721
 11
405.32657
 21
78.870415
  0
LINE
  8
INNER_SH
  6
CENTER1
 62
    7
 10
395.3266
 20
87.944721
 11
395.3266
 21
78.870415
  0
LINE
  8
INNER_SH
  6
CENTER1
 62
    7
 10
385.32655
 20
87.944721
 11
385.32655
 21
78.870415
  0
LINE
  8
INNER_SH
  6
CENTER1
 62
    7
 10
375.32653
 20
87.944721
 11
375.32653
 21
78.870415
  0
LINE
  8
INNER_SH
  6
CONTINUOUS
 62
    7
 10
358.83305
 20
81.968685
 11
363.83664
 21
81.968685
  0
LINE
  8
INNER_SH
  6
CONTINUOUS
 62
    4
 10
463.32665
 20
81.968685
 11
463.32665
 21
70.568685
  0
LINE
  8
SHIELD_P
  6
DASHED1
 62
    2
 10
370.32654
 20
84.968689
 11
400.32655
 21
84.968689
  0
LINE
  8
SHIELD_P
  6
DASHED1
 62
    2
 10
370.32654
 20
84.968689
 11
370.32654
 21
89.968687
  0
LINE
  8
SHIELD_P
  6
DASHED1
 62
    2
 10
400.32655
 20
89.968687
 11
370.32654
 21
89.968687
  0
LINE
  8
SHIELD_P
  6
DASHED1
 62
    2
 10
400.32655
 20
84.968689
 11
400.32655
 21
89.968687
  0
LINE
  8
SHIELD_P
  6
DASHED1
 62
    2
 10
375.32653
 20
84.968689
 11
375.32653
 21
93.116615
  0
LINE
  8
SHIELD_P
  6
DASHED1
 62
    2
 10
395.3266
 20
84.968689
 11
395.3266
 21
92.47464
  0
LINE
  8
CATH_TER
  6
CONTINUOUS
 62
    4
 10
387.71538
 20
4.9687211
 11
387.71538
 21
84.968689
  0
LINE
  8
SHIELD_P
  6
DASHED1
 62
    2
 10
388.92656
 20
89.968687
 11
388.92656
 21
113.34868
  0
LINE
  8
SHIELD_P
  6
DASHED1
 62
    2
 10
381.32654
 20
96.968688
 11
381.32654
 21
113.34868
  0
LINE
  8
SHIELD_P
  6
DASHED1
 62
    2
 10
382.92655
 20
96.968688
 11
381.32654
 21
96.968688
  0
LINE
  8
SHIELD_P
  6
DASHED1
 62
    2
 10
382.92655
 20
89.968687
 11
382.92655
 21
96.968688
  0
LINE
  8
SHIELD_P
  6
DASHED1
 62
    2
 10
382.92655
 20
96.968688
 11
382.92655
 21
113.34868
  0
LINE
  8
SHIELD_P
  6
DASHED1
 62
    5
 10
379.72657
 20
94.968685
 11
379.72657
 21
117.52868
  0
LINE
  8
SHIELD_P
  6
DASHED1
 62
    5
 10
381.32654
 20
95.053041
 11
381.32654
 21
117.52868
  0
LINE
  8
SHIELD_P
  6
DASHED1
 62
    5
 10
379.72657
 20
94.968685
 11
382.92655
 21
94.968685
  0
LINE
  8
SHIELD_P
  6
DASHED1
 62
    5
 10
382.92655
 20
117.52868
 11
379.72657
 21
117.52868
  0
LINE
  8
SHIELD_P
  6
DASHED1
 62
    2
 10
388.92656
 20
113.34868
 11
381.32654
 21
113.34868
  0
LINE
  8
SHIELD_P
  6
DASHED1
 62
    5
 10
382.92655
 20
117.52868
 11
382.92655
 21
113.34868
  0
LINE
  8
SHIELD_P
  6
DASHED1
 62
    2
 10
390.60541
 20
100.84168
 11
367.24407
 21
100.84168
  0
LINE
  8
SHIELD_P
  6
DASHED1
 62
    2
 10
390.60541
 20
110.07168
 11
367.24407
 21
110.07168
  0
LINE
  8
SHIELD_P
  6
DASHED1
 62
    5
 10
371.72652
 20
94.968685
 11
371.72652
 21
117.52868
  0
LINE
  8
SHIELD_P
  6
DASHED1
 62
    5
 10
370.12651
 20
94.968685
 11
370.12651
 21
117.52868
  0
LINE
  8
SHIELD_P
  6
DASHED1
 62
    2
 10
379.72657
 20
98.841685
 11
371.72652
 21
98.841685
  0
LINE
  8
SHIELD_P
  6
DASHED1
 62
    2
 10
379.72657
 20
102.84169
 11
371.72652
 21
102.84169
  0
LINE
  8
SHIELD_P
  6
DASHED1
 62
    2
 10
379.72657
 20
108.07168
 11
371.72652
 21
108.07168
  0
LINE
  8
SHIELD_P
  6
DASHED1
 62
    2
 10
379.72657
 20
112.07169
 11
371.72652
 21
112.07169
  0
LINE
  8
SHIELD_P
  6
DASHED1
 62
    5
 10
373.21287
 20
95.06913
 11
373.21287
 21
98.841685
  0
LINE
  8
SHIELD_P
  6
DASHED1
 62
    5
 10
373.13248
 20
112.07169
 11
373.13248
 21
108.07168
  0
LINE
  8
SHIELD_P
  6
DASHED1
 62
    5
 10
373.21287
 20
98.841685
 11
373.21287
 21
102.84169
  0
LINE
  8
SHIELD_P
  6
DASHED1
 62
    5
 10
373.21287
 20
102.84169
 11
373.21287
 21
108.07168
  0
LINE
  8
17DEG_15
  6
CONTINUOUS
 62
    5
 10
241.21274
 20
244.46873
 11
258.21268
 21
244.46873
  0
LINE
  8
SHIELD_B
  6
CENTER1
 62
    3
 10
136.45945
 20
240.96872
 11
385.29729
 21
240.96872
  0
LINE
  8
SHIELD_B
  6
CENTER1
 62
    3
 10
277.5058
 20
160.71871
 11
517.16991
 21
160.71871
  0
LINE
  8
ADD_LINE
  6
DOT
 62
    7
 10
735.83308
 20
4.9687211
 11
735.83308
 21
169.71428
  0
LINE
  8
ADD_LINE
  6
DOT
 62
    7
 10
585.83302
 20
4.9687211
 11
585.83302
 21
169.71428
  0
LINE
  8
17DEG_15
  6
CONTINUOUS
 62
    7
 10
423.9724
 20
92.468725
 11
423.07813
 21
92.332192
  0
LINE
  8
17DEG_15
  6
CONTINUOUS
 62
    7
 10
423.07813
 20
92.332192
 11
422.18716
 21
92.208625
  0
LINE
  8
17DEG_15
  6
CONTINUOUS
 62
    7
 10
422.18716
 20
92.208625
 11
421.30252
 21
92.111093
  0
LINE
  8
17DEG_15
  6
CONTINUOUS
 62
    7
 10
421.30252
 20
92.111093
 11
420.42705
 21
92.052617
  0
LINE
  8
17DEG_15
  6
CONTINUOUS
 62
    7
 10
420.42705
 20
92.052617
 11
419.99398
 21
92.041961
  0
LINE
  8
17DEG_15
  6
CONTINUOUS
 62
    7
 10
419.99398
 20
92.041961
 11
419.56417
 21
92.046055
  0
LINE
  8
17DEG_15
  6
CONTINUOUS
 62
    7
 10
419.56417
 20
92.046055
 11
419.13856
 21
92.06637
  0
LINE
  8
17DEG_15
  6
CONTINUOUS
 62
    7
 10
419.13856
 20
92.06637
 11
418.71694
 21
92.104584
  0
LINE
  8
17DEG_15
  6
CONTINUOUS
 62
    7
 10
418.71694
 20
92.104584
 11
418.30015
 21
92.162326
  0
LINE
  8
17DEG_15
  6
CONTINUOUS
 62
    7
 10
418.30015
 20
92.162326
 11
417.88861
 21
92.241117
  0
LINE
  8
17DEG_15
  6
CONTINUOUS
 62
    7
 10
417.88861
 20
92.241117
 11
417.48232
 21
92.342743
  0
LINE
  8
17DEG_15
  6
CONTINUOUS
 62
    7
 10
417.48232
 20
92.342743
 11
417.08191
 21
92.468725
  0
LINE
  8
17DEG_15
  6
CONTINUOUS
 62
    7
 10
417.08191
 20
92.468725
 11
416.63782
 21
92.641583
  0
LINE
  8
17DEG_15
  6
CONTINUOUS
 62
    7
 10
416.63782
 20
92.641583
 11
416.20255
 21
92.845622
  0
LINE
  8
17DEG_15
  6
CONTINUOUS
 62
    7
 10
416.20255
 20
92.845622
 11
415.77729
 21
93.079214
  0
LINE
  8
17DEG_15
  6
CONTINUOUS
 62
    7
 10
415.77729
 20
93.079214
 11
415.36277
 21
93.340365
  0
LINE
  8
17DEG_15
  6
CONTINUOUS
 62
    7
 10
415.36277
 20
93.340365
 11
414.96008
 21
93.627342
  0
LINE
  8
17DEG_15
  6
CONTINUOUS
 62
    7
 10
414.96008
 20
93.627342
 11
414.57003
 21
93.938317
  0
LINE
  8
17DEG_15
  6
CONTINUOUS
 62
    7
 10
414.57003
 20
93.938317
 11
414.19397
 21
94.271531
  0
LINE
  8
17DEG_15
  6
CONTINUOUS
 62
    7
 10
414.19397
 20
94.271531
 11
413.83244
 21
94.625068
  0
LINE
  8
17DEG_15
  6
CONTINUOUS
 62
    7
 10
413.83244
 20
94.625068
 11
413.48658
 21
94.997031
  0
LINE
  8
17DEG_15
  6
CONTINUOUS
 62
    7
 10
413.48658
 20
94.997031
 11
413.15735
 21
95.385686
  0
LINE
  8
17DEG_15
  6
CONTINUOUS
 62
    7
 10
413.15735
 20
95.385686
 11
412.84575
 21
95.789249
  0
LINE
  8
17DEG_15
  6
CONTINUOUS
 62
    7
 10
412.84575
 20
95.789249
 11
412.55253
 21
96.205935
  0
LINE
  8
17DEG_15
  6
CONTINUOUS
 62
    7
 10
412.55253
 20
96.205935
 11
412.27883
 21
96.633645
  0
LINE
  8
17DEG_15
  6
CONTINUOUS
 62
    7
 10
412.27883
 20
96.633645
 11
412.02571
 21
97.070908
  0
LINE
  8
17DEG_15
  6
CONTINUOUS
 62
    7
 10
412.02571
 20
97.070908
 11
411.79401
 21
97.515678
  0
LINE
  8
17DEG_15
  6
CONTINUOUS
 62
    7
 10
411.79401
 20
97.515678
 11
411.58457
 21
97.966117
  0
LINE
  8
17DEG_15
  6
CONTINUOUS
 62
    7
 10
411.58457
 20
97.966117
 11
411.40998
 21
98.3901
  0
LINE
  8
17DEG_15
  6
CONTINUOUS
 62
    7
 10
411.40998
 20
98.3901
 11
411.25502
 21
98.817346
  0
LINE
  8
17DEG_15
  6
CONTINUOUS
 62
    7
 10
411.25502
 20
98.817346
 11
411.11854
 21
99.247671
  0
LINE
  8
17DEG_15
  6
CONTINUOUS
 62
    7
 10
411.11854
 20
99.247671
 11
411.00015
 21
99.68105
  0
LINE
  8
17DEG_15
  6
CONTINUOUS
 62
    7
 10
411.00015
 20
99.68105
 11
410.89852
 21
100.11726
  0
LINE
  8
17DEG_15
  6
CONTINUOUS
 62
    7
 10
410.89852
 20
100.11726
 11
410.81324
 21
100.5561
  0
LINE
  8
17DEG_15
  6
CONTINUOUS
 62
    7
 10
410.81324
 20
100.5561
 11
410.74321
 21
100.99766
  0
LINE
  8
17DEG_15
  6
CONTINUOUS
 62
    7
 10
410.74321
 20
100.99766
 11
410.68778
 21
101.44154
  0
LINE
  8
17DEG_15
  6
CONTINUOUS
 62
    7
 10
410.68778
 20
101.44154
 11
410.61734
 21
102.33612
  0
LINE
  8
17DEG_15
  6
CONTINUOUS
 62
    7
 10
410.61734
 20
102.33612
 11
410.59508
 21
103.23889
  0
LINE
  8
17DEG_15
  6
CONTINUOUS
 62
    7
 10
410.59508
 20
103.23889
 11
410.61482
 21
104.14853
  0
LINE
  8
17DEG_15
  6
CONTINUOUS
 62
    7
 10
410.61482
 20
104.14853
 11
410.66966
 21
105.06417
  0
LINE
  8
17DEG_15
  6
CONTINUOUS
 62
    7
 10
410.66966
 20
105.06417
 11
410.75298
 21
105.98451
  0
LINE
  8
17DEG_15
  6
CONTINUOUS
 62
    7
 10
410.75298
 20
105.98451
 11
410.85828
 21
106.90859
  0
LINE
  8
17DEG_15
  6
CONTINUOUS
 62
    7
 10
410.85828
 20
106.90859
 11
411.10891
 21
108.76342
  0
LINE
  8
17DEG_15
  6
CONTINUOUS
 62
    7
 10
411.10891
 20
108.76342
 11
411.3684
 21
110.61972
  0
LINE
  8
17DEG_15
  6
CONTINUOUS
 62
    7
 10
411.3684
 20
110.61972
 11
411.48539
 21
111.54569
  0
LINE
  8
17DEG_15
  6
CONTINUOUS
 62
    7
 10
411.48539
 20
111.54569
 11
411.58457
 21
112.46871
  0
LINE
  8
17DEG_15
  6
CONTINUOUS
 62
    7
 10
411.58457
 20
112.46871
 11
411.68462
 21
113.73552
  0
LINE
  8
17DEG_15
  6
CONTINUOUS
 62
    7
 10
411.68462
 20
113.73552
 11
411.74456
 21
114.99555
  0
LINE
  8
17DEG_15
  6
CONTINUOUS
 62
    7
 10
411.74456
 20
114.99555
 11
411.77028
 21
116.24986
  0
LINE
  8
17DEG_15
  6
CONTINUOUS
 62
    7
 10
411.77028
 20
116.24986
 11
411.76735
 21
117.49934
  0
LINE
  8
17DEG_15
  6
CONTINUOUS
 62
    7
 10
411.76735
 20
117.49934
 11
411.74173
 21
118.74509
  0
LINE
  8
17DEG_15
  6
CONTINUOUS
 62
    7
 10
411.74173
 20
118.74509
 11
411.6989
 21
119.98791
  0
LINE
  8
17DEG_15
  6
CONTINUOUS
 62
    7
 10
411.6989
 20
119.98791
 11
411.58457
 21
122.46871
  0
LINE
  8
INNER_SH
  6
CONTINUOUS
 62
    4
 10
363.83664
 20
62.543548
 11
463.32665
 21
62.543548
  0
LINE
  8
INNER_SH
  6
CONTINUOUS
 62
    4
 10
363.83664
 20
81.968685
 11
363.83664
 21
61.143553
  0
LINE
  8
INNER_SH
  6
CONTINUOUS
 62
    4
 10
463.32665
 20
81.968685
 11
463.32665
 21
61.143553
  0
LINE
  8
INNER_SH
  6
CONTINUOUS
 62
    4
 10
363.83664
 20
62.543548
 11
365.76851
 21
63.06119
  0
LINE
  8
INNER_SH
  6
CONTINUOUS
 62
    4
 10
363.83664
 20
62.543548
 11
365.76851
 21
62.02591
  0
LINE
  8
INNER_SH
  6
CONTINUOUS
 62
    4
 10
463.32665
 20
62.543548
 11
461.39475
 21
63.06119
  0
LINE
  8
INNER_SH
  6
CONTINUOUS
 62
    4
 10
463.32665
 20
62.543548
 11
461.39475
 21
62.02591
  0
LINE
  8
INNER_SH
  6
CONTINUOUS
 62
    4
 10
358.83305
 20
52.434783
 11
463.32676
 21
52.434783
  0
LINE
  8
INNER_SH
  6
CONTINUOUS
 62
    4
 10
358.83305
 20
81.968685
 11
358.83305
 21
51.034784
  0
LINE
  8
INNER_SH
  6
CONTINUOUS
 62
    4
 10
463.32676
 20
81.968685
 11
463.32676
 21
51.034784
  0
LINE
  8
INNER_SH
  6
CONTINUOUS
 62
    4
 10
358.83305
 20
52.434783
 11
360.76491
 21
52.952421
  0
LINE
  8
INNER_SH
  6
CONTINUOUS
 62
    4
 10
358.83305
 20
52.434783
 11
360.76491
 21
51.917145
  0
LINE
  8
INNER_SH
  6
CONTINUOUS
 62
    4
 10
463.32676
 20
52.434783
 11
461.39489
 21
52.952421
  0
LINE
  8
INNER_SH
  6
CONTINUOUS
 62
    4
 10
463.32676
 20
52.434783
 11
461.39489
 21
51.917145
  0
LINE
  8
INNER_SH
  6
CONTINUOUS
 62
    7
 10
358.83665
 20
136.02513
 11
358.83665
 21
81.968685
  0
LINE
  8
DIMENSIO
  6
CENTER1
 62
    3
 10
459.0975
 20
126.96872
 11
476.42835
 21
126.96872
  0
LINE
  8
17DEG_15
  6
CONTINUOUS
 62
    7
 10
427.6304
 20
112.46871
 11
426.73624
 21
112.33218
  0
LINE
  8
17DEG_15
  6
CONTINUOUS
 62
    7
 10
426.73624
 20
112.33218
 11
425.84523
 21
112.20867
  0
LINE
  8
17DEG_15
  6
CONTINUOUS
 62
    7
 10
425.84523
 20
112.20867
 11
424.96066
 21
112.11108
  0
LINE
  8
17DEG_15
  6
CONTINUOUS
 62
    7
 10
424.96066
 20
112.11108
 11
424.08522
 21
112.05255
  0
LINE
  8
17DEG_15
  6
CONTINUOUS
 62
    7
 10
424.08522
 20
112.05255
 11
423.65205
 21
112.042
  0
LINE
  8
17DEG_15
  6
CONTINUOUS
 62
    7
 10
423.65205
 20
112.042
 11
423.22228
 21
112.04604
  0
LINE
  8
17DEG_15
  6
CONTINUOUS
 62
    7
 10
423.22228
 20
112.04604
 11
422.79656
 21
112.06641
  0
LINE
  8
17DEG_15
  6
CONTINUOUS
 62
    7
 10
422.79656
 20
112.06641
 11
422.37515
 21
112.10462
  0
LINE
  8
17DEG_15
  6
CONTINUOUS
 62
    7
 10
422.37515
 20
112.10462
 11
421.95836
 21
112.16232
  0
LINE
  8
17DEG_15
  6
CONTINUOUS
 62
    7
 10
421.95836
 20
112.16232
 11
421.54668
 21
112.24121
  0
LINE
  8
17DEG_15
  6
CONTINUOUS
 62
    7
 10
421.54668
 20
112.24121
 11
421.14042
 21
112.34273
  0
LINE
  8
17DEG_15
  6
CONTINUOUS
 62
    7
 10
421.14042
 20
112.34273
 11
420.74011
 21
112.46871
  0
LINE
  8
17DEG_15
  6
CONTINUOUS
 62
    7
 10
420.74011
 20
112.46871
 11
420.29592
 21
112.64163
  0
LINE
  8
17DEG_15
  6
CONTINUOUS
 62
    7
 10
420.29592
 20
112.64163
 11
419.86076
 21
112.84562
  0
LINE
  8
17DEG_15
  6
CONTINUOUS
 62
    7
 10
419.86076
 20
112.84562
 11
419.43536
 21
113.0792
  0
LINE
  8
17DEG_15
  6
CONTINUOUS
 62
    7
 10
419.43536
 20
113.0792
 11
419.02088
 21
113.3404
  0
LINE
  8
17DEG_15
  6
CONTINUOUS
 62
    7
 10
419.02088
 20
113.3404
 11
418.61822
 21
113.62733
  0
LINE
  8
17DEG_15
  6
CONTINUOUS
 62
    7
 10
418.61822
 20
113.62733
 11
418.22824
 21
113.9384
  0
LINE
  8
17DEG_15
  6
CONTINUOUS
 62
    7
 10
418.22824
 20
113.9384
 11
417.85204
 21
114.27152
  0
LINE
  8
17DEG_15
  6
CONTINUOUS
 62
    7
 10
417.85204
 20
114.27152
 11
417.49047
 21
114.62506
  0
LINE
  8
17DEG_15
  6
CONTINUOUS
 62
    7
 10
417.49047
 20
114.62506
 11
417.14469
 21
114.99707
  0
LINE
  8
17DEG_15
  6
CONTINUOUS
 62
    7
 10
417.14469
 20
114.99707
 11
416.81542
 21
115.38579
  0
LINE
  8
17DEG_15
  6
CONTINUOUS
 62
    7
 10
416.81542
 20
115.38579
 11
416.50386
 21
115.78935
  0
LINE
  8
17DEG_15
  6
CONTINUOUS
 62
    7
 10
416.50386
 20
115.78935
 11
416.21063
 21
116.20593
  0
LINE
  8
17DEG_15
  6
CONTINUOUS
 62
    7
 10
416.21063
 20
116.20593
 11
415.93704
 21
116.63369
  0
LINE
  8
17DEG_15
  6
CONTINUOUS
 62
    7
 10
415.93704
 20
116.63369
 11
415.68382
 21
117.07096
  0
LINE
  8
17DEG_15
  6
CONTINUOUS
 62
    7
 10
415.68382
 20
117.07096
 11
415.45208
 21
117.51567
  0
LINE
  8
17DEG_15
  6
CONTINUOUS
 62
    7
 10
415.45208
 20
117.51567
 11
415.24274
 21
117.96617
  0
LINE
  8
17DEG_15
  6
CONTINUOUS
 62
    7
 10
415.24274
 20
117.96617
 11
415.06808
 21
118.39009
  0
LINE
  8
17DEG_15
  6
CONTINUOUS
 62
    7
 10
415.06808
 20
118.39009
 11
414.91312
 21
118.81738
  0
LINE
  8
17DEG_15
  6
CONTINUOUS
 62
    7
 10
414.91312
 20
118.81738
 11
414.77664
 21
119.24777
  0
LINE
  8
17DEG_15
  6
CONTINUOUS
 62
    7
 10
414.77664
 20
119.24777
 11
414.65815
 21
119.68109
  0
LINE
  8
17DEG_15
  6
CONTINUOUS
 62
    7
 10
414.65815
 20
119.68109
 11
414.55659
 21
120.11725
  0
LINE
  8
17DEG_15
  6
CONTINUOUS
 62
    7
 10
414.55659
 20
120.11725
 11
414.47124
 21
120.55614
  0
LINE
  8
17DEG_15
  6
CONTINUOUS
 62
    7
 10
414.47124
 20
120.55614
 11
414.40132
 21
120.99766
  0
LINE
  8
17DEG_15
  6
CONTINUOUS
 62
    7
 10
414.40132
 20
120.99766
 11
414.34589
 21
121.4416
  0
LINE
  8
17DEG_15
  6
CONTINUOUS
 62
    7
 10
414.34589
 20
121.4416
 11
414.27541
 21
122.33622
  0
LINE
  8
17DEG_15
  6
CONTINUOUS
 62
    7
 10
414.27541
 20
122.33622
 11
414.25329
 21
123.23888
  0
LINE
  8
17DEG_15
  6
CONTINUOUS
 62
    7
 10
414.25329
 20
123.23888
 11
414.27289
 21
124.14853
  0
LINE
  8
17DEG_15
  6
CONTINUOUS
 62
    7
 10
414.27289
 20
124.14853
 11
414.32762
 21
125.06421
  0
LINE
  8
17DEG_15
  6
CONTINUOUS
 62
    7
 10
414.32762
 20
125.06421
 11
414.41105
 21
125.98451
  0
LINE
  8
17DEG_15
  6
CONTINUOUS
 62
    7
 10
414.41105
 20
125.98451
 11
414.51642
 21
126.90858
  0
LINE
  8
17DEG_15
  6
CONTINUOUS
 62
    7
 10
414.51642
 20
126.90858
 11
414.76695
 21
128.76341
  0
LINE
  8
17DEG_15
  6
CONTINUOUS
 62
    7
 10
414.76695
 20
128.76341
 11
415.02651
 21
130.61976
  0
LINE
  8
17DEG_15
  6
CONTINUOUS
 62
    7
 10
415.02651
 20
130.61976
 11
415.14335
 21
131.54573
  0
LINE
  8
17DEG_15
  6
CONTINUOUS
 62
    7
 10
415.14335
 20
131.54573
 11
415.24274
 21
132.4687
  0
LINE
  8
17DEG_15
  6
CONTINUOUS
 62
    7
 10
415.24274
 20
132.4687
 11
415.34269
 21
133.73552
  0
LINE
  8
17DEG_15
  6
CONTINUOUS
 62
    7
 10
415.34269
 20
133.73552
 11
415.40267
 21
134.9956
  0
LINE
  8
17DEG_15
  6
CONTINUOUS
 62
    7
 10
415.40267
 20
134.9956
 11
415.42835
 21
136.24985
  0
LINE
  8
17DEG_15
  6
CONTINUOUS
 62
    7
 10
415.42835
 20
136.24985
 11
415.42555
 21
137.49939
  0
LINE
  8
17DEG_15
  6
CONTINUOUS
 62
    7
 10
415.42555
 20
137.49939
 11
415.3998
 21
138.74515
  0
LINE
  8
17DEG_15
  6
CONTINUOUS
 62
    7
 10
415.3998
 20
138.74515
 11
415.35696
 21
139.98785
  0
LINE
  8
17DEG_15
  6
CONTINUOUS
 62
    7
 10
415.35696
 20
139.98785
 11
415.24274
 21
142.46875
  0
LINE
  8
17DEG_15
  6
CONTINUOUS
 62
    7
 10
455.74007
 20
113.96874
 11
435.74005
 21
113.96874
  0
LINE
  8
17DEG_15
  6
CONTINUOUS
 62
    7
 10
435.74005
 20
113.96874
 11
435.74005
 21
111.96877
  0
LINE
  8
17DEG_15
  6
CONTINUOUS
 62
    7
 10
435.74005
 20
111.96877
 11
455.74007
 21
111.96877
  0
LINE
  8
17DEG_15
  6
CONTINUOUS
 62
    7
 10
455.74007
 20
111.96877
 11
455.74007
 21
113.96874
  0
LINE
  8
17DEG_15
  6
CONTINUOUS
 62
    7
 10
421.50619
 20
131.96872
 11
420.61203
 21
131.83219
  0
LINE
  8
17DEG_15
  6
CONTINUOUS
 62
    7
 10
420.61203
 20
131.83219
 11
419.72102
 21
131.70866
  0
LINE
  8
17DEG_15
  6
CONTINUOUS
 62
    7
 10
419.72102
 20
131.70866
 11
418.83642
 21
131.61109
  0
LINE
  8
17DEG_15
  6
CONTINUOUS
 62
    7
 10
418.83642
 20
131.61109
 11
417.96102
 21
131.55255
  0
LINE
  8
17DEG_15
  6
CONTINUOUS
 62
    7
 10
417.96102
 20
131.55255
 11
417.52785
 21
131.542
  0
LINE
  8
17DEG_15
  6
CONTINUOUS
 62
    7
 10
417.52785
 20
131.542
 11
417.09811
 21
131.54605
  0
LINE
  8
17DEG_15
  6
CONTINUOUS
 62
    7
 10
417.09811
 20
131.54605
 11
416.67236
 21
131.56641
  0
LINE
  8
17DEG_15
  6
CONTINUOUS
 62
    7
 10
416.67236
 20
131.56641
 11
416.25098
 21
131.60463
  0
LINE
  8
17DEG_15
  6
CONTINUOUS
 62
    7
 10
416.25098
 20
131.60463
 11
415.83416
 21
131.66231
  0
LINE
  8
17DEG_15
  6
CONTINUOUS
 62
    7
 10
415.83416
 20
131.66231
 11
415.42247
 21
131.74122
  0
LINE
  8
17DEG_15
  6
CONTINUOUS
 62
    7
 10
415.42247
 20
131.74122
 11
415.01622
 21
131.84273
  0
LINE
  8
17DEG_15
  6
CONTINUOUS
 62
    7
 10
415.01622
 20
131.84273
 11
414.61591
 21
131.96872
  0
LINE
  8
17DEG_15
  6
CONTINUOUS
 62
    7
 10
414.61591
 20
131.96872
 11
414.17172
 21
132.14162
  0
LINE
  8
17DEG_15
  6
CONTINUOUS
 62
    7
 10
414.17172
 20
132.14162
 11
413.73655
 21
132.34561
  0
LINE
  8
17DEG_15
  6
CONTINUOUS
 62
    7
 10
413.73655
 20
132.34561
 11
413.31115
 21
132.57921
  0
LINE
  8
17DEG_15
  6
CONTINUOUS
 62
    7
 10
413.31115
 20
132.57921
 11
412.89667
 21
132.84041
  0
LINE
  8
17DEG_15
  6
CONTINUOUS
 62
    7
 10
412.89667
 20
132.84041
 11
412.49402
 21
133.12734
  0
LINE
  8
17DEG_15
  6
CONTINUOUS
 62
    7
 10
412.49402
 20
133.12734
 11
412.10403
 21
133.4384
  0
LINE
  8
17DEG_15
  6
CONTINUOUS
 62
    7
 10
412.10403
 20
133.4384
 11
411.72784
 21
133.77152
  0
LINE
  8
17DEG_15
  6
CONTINUOUS
 62
    7
 10
411.72784
 20
133.77152
 11
411.36627
 21
134.12506
  0
LINE
  8
17DEG_15
  6
CONTINUOUS
 62
    7
 10
411.36627
 20
134.12506
 11
411.02048
 21
134.49707
  0
LINE
  8
17DEG_15
  6
CONTINUOUS
 62
    7
 10
411.02048
 20
134.49707
 11
410.69121
 21
134.88578
  0
LINE
  8
17DEG_15
  6
CONTINUOUS
 62
    7
 10
410.69121
 20
134.88578
 11
410.37962
 21
135.28934
  0
LINE
  8
17DEG_15
  6
CONTINUOUS
 62
    7
 10
410.37962
 20
135.28934
 11
410.08643
 21
135.70592
  0
LINE
  8
17DEG_15
  6
CONTINUOUS
 62
    7
 10
410.08643
 20
135.70592
 11
409.81284
 21
136.13369
  0
LINE
  8
17DEG_15
  6
CONTINUOUS
 62
    7
 10
409.81284
 20
136.13369
 11
409.55961
 21
136.57095
  0
LINE
  8
17DEG_15
  6
CONTINUOUS
 62
    7
 10
409.55961
 20
136.57095
 11
409.32787
 21
137.01567
  0
LINE
  8
17DEG_15
  6
CONTINUOUS
 62
    7
 10
409.32787
 20
137.01567
 11
409.11853
 21
137.46616
  0
LINE
  8
17DEG_15
  6
CONTINUOUS
 62
    7
 10
409.11853
 20
137.46616
 11
408.94387
 21
137.8901
  0
LINE
  8
17DEG_15
  6
CONTINUOUS
 62
    7
 10
408.94387
 20
137.8901
 11
408.78892
 21
138.31737
  0
LINE
  8
17DEG_15
  6
CONTINUOUS
 62
    7
 10
408.78892
 20
138.31737
 11
408.65244
 21
138.74776
  0
LINE
  8
17DEG_15
  6
CONTINUOUS
 62
    7
 10
408.65244
 20
138.74776
 11
408.53391
 21
139.18109
  0
LINE
  8
17DEG_15
  6
CONTINUOUS
 62
    7
 10
408.53391
 20
139.18109
 11
408.43239
 21
139.61725
  0
LINE
  8
17DEG_15
  6
CONTINUOUS
 62
    7
 10
408.43239
 20
139.61725
 11
408.34703
 21
140.05615
  0
LINE
  8
17DEG_15
  6
CONTINUOUS
 62
    7
 10
408.34703
 20
140.05615
 11
408.27711
 21
140.49767
  0
LINE
  8
17DEG_15
  6
CONTINUOUS
 62
    7
 10
408.27711
 20
140.49767
 11
408.22168
 21
140.94159
  0
LINE
  8
17DEG_15
  6
CONTINUOUS
 62
    7
 10
408.22168
 20
140.94159
 11
408.1512
 21
141.83622
  0
LINE
  8
17DEG_15
  6
CONTINUOUS
 62
    7
 10
408.1512
 20
141.83622
 11
408.12908
 21
142.73888
  0
LINE
  8
17DEG_15
  6
CONTINUOUS
 62
    7
 10
408.12908
 20
142.73888
 11
408.14868
 21
143.64852
  0
LINE
  8
17DEG_15
  6
CONTINUOUS
 62
    7
 10
408.14868
 20
143.64852
 11
408.20341
 21
144.56421
  0
LINE
  8
17DEG_15
  6
CONTINUOUS
 62
    7
 10
408.20341
 20
144.56421
 11
408.28684
 21
145.48451
  0
LINE
  8
17DEG_15
  6
CONTINUOUS
 62
    7
 10
408.28684
 20
145.48451
 11
408.39218
 21
146.40858
  0
LINE
  8
17DEG_15
  6
CONTINUOUS
 62
    7
 10
408.39218
 20
146.40858
 11
408.64274
 21
148.26341
  0
LINE
  8
17DEG_15
  6
CONTINUOUS
 62
    7
 10
408.64274
 20
148.26341
 11
408.9023
 21
150.11976
  0
LINE
  8
17DEG_15
  6
CONTINUOUS
 62
    7
 10
408.9023
 20
150.11976
 11
409.01915
 21
151.04573
  0
LINE
  8
17DEG_15
  6
CONTINUOUS
 62
    7
 10
409.01915
 20
151.04573
 11
409.11853
 21
151.96871
  0
LINE
  8
17DEG_15
  6
CONTINUOUS
 62
    7
 10
409.11853
 20
151.96871
 11
409.21848
 21
153.23551
  0
LINE
  8
17DEG_15
  6
CONTINUOUS
 62
    7
 10
409.21848
 20
153.23551
 11
409.2785
 21
154.49559
  0
LINE
  8
17DEG_15
  6
CONTINUOUS
 62
    7
 10
409.2785
 20
154.49559
 11
409.30415
 21
155.74985
  0
LINE
  8
17DEG_15
  6
CONTINUOUS
 62
    7
 10
409.30415
 20
155.74985
 11
409.30135
 21
156.99939
  0
LINE
  8
17DEG_15
  6
CONTINUOUS
 62
    7
 10
409.30135
 20
156.99939
 11
409.27559
 21
158.24514
  0
LINE
  8
17DEG_15
  6
CONTINUOUS
 62
    7
 10
409.27559
 20
158.24514
 11
409.23276
 21
159.48787
  0
LINE
  8
17DEG_15
  6
CONTINUOUS
 62
    7
 10
409.23276
 20
159.48787
 11
409.11853
 21
161.96875
  0
LINE
  8
17DEG_15
  6
CONTINUOUS
 62
    7
 10
449.6159
 20
133.46875
 11
429.61584
 21
133.46875
  0
LINE
  8
17DEG_15
  6
CONTINUOUS
 62
    7
 10
429.61584
 20
133.46875
 11
429.61584
 21
131.46878
  0
LINE
  8
17DEG_15
  6
CONTINUOUS
 62
    7
 10
429.61584
 20
131.46878
 11
449.6159
 21
131.46878
  0
LINE
  8
17DEG_15
  6
CONTINUOUS
 62
    7
 10
449.6159
 20
131.46878
 11
449.6159
 21
133.46875
  0
LINE
  8
17DEG_15
  6
CONTINUOUS
 62
    7
 10
393.79346
 20
147.96866
 11
392.8993
 21
147.83215
  0
LINE
  8
17DEG_15
  6
CONTINUOUS
 62
    7
 10
392.8993
 20
147.83215
 11
392.00829
 21
147.70862
  0
LINE
  8
17DEG_15
  6
CONTINUOUS
 62
    7
 10
392.00829
 20
147.70862
 11
391.12369
 21
147.61105
  0
LINE
  8
17DEG_15
  6
CONTINUOUS
 62
    7
 10
391.12369
 20
147.61105
 11
390.24829
 21
147.5525
  0
LINE
  8
17DEG_15
  6
CONTINUOUS
 62
    7
 10
390.24829
 20
147.5525
 11
389.81512
 21
147.54195
  0
LINE
  8
17DEG_15
  6
CONTINUOUS
 62
    7
 10
389.81512
 20
147.54195
 11
389.38534
 21
147.54599
  0
LINE
  8
17DEG_15
  6
CONTINUOUS
 62
    7
 10
389.38534
 20
147.54599
 11
388.95966
 21
147.56636
  0
LINE
  8
17DEG_15
  6
CONTINUOUS
 62
    7
 10
388.95966
 20
147.56636
 11
388.53822
 21
147.60458
  0
LINE
  8
17DEG_15
  6
CONTINUOUS
 62
    7
 10
388.53822
 20
147.60458
 11
388.12143
 21
147.66227
  0
LINE
  8
17DEG_15
  6
CONTINUOUS
 62
    7
 10
388.12143
 20
147.66227
 11
387.70978
 21
147.74116
  0
LINE
  8
17DEG_15
  6
CONTINUOUS
 62
    7
 10
387.70978
 20
147.74116
 11
387.30349
 21
147.84268
  0
LINE
  8
17DEG_15
  6
CONTINUOUS
 62
    7
 10
387.30349
 20
147.84268
 11
386.90318
 21
147.96866
  0
LINE
  8
17DEG_15
  6
CONTINUOUS
 62
    7
 10
386.90318
 20
147.96866
 11
386.45899
 21
148.14158
  0
LINE
  8
17DEG_15
  6
CONTINUOUS
 62
    7
 10
386.45899
 20
148.14158
 11
386.02382
 21
148.34556
  0
LINE
  8
17DEG_15
  6
CONTINUOUS
 62
    7
 10
386.02382
 20
148.34556
 11
385.59842
 21
148.57915
  0
LINE
  8
17DEG_15
  6
CONTINUOUS
 62
    7
 10
385.59842
 20
148.57915
 11
385.18394
 21
148.84037
  0
LINE
  8
17DEG_15
  6
CONTINUOUS
 62
    7
 10
385.18394
 20
148.84037
 11
384.78129
 21
149.12728
  0
LINE
  8
17DEG_15
  6
CONTINUOUS
 62
    7
 10
384.78129
 20
149.12728
 11
384.3913
 21
149.43835
  0
LINE
  8
17DEG_15
  6
CONTINUOUS
 62
    7
 10
384.3913
 20
149.43835
 11
384.01511
 21
149.77147
  0
LINE
  8
17DEG_15
  6
CONTINUOUS
 62
    7
 10
384.01511
 20
149.77147
 11
383.65354
 21
150.12501
  0
LINE
  8
17DEG_15
  6
CONTINUOUS
 62
    7
 10
383.65354
 20
150.12501
 11
383.30775
 21
150.49702
  0
LINE
  8
17DEG_15
  6
CONTINUOUS
 62
    7
 10
383.30775
 20
150.49702
 11
382.97852
 21
150.88573
  0
LINE
  8
17DEG_15
  6
CONTINUOUS
 62
    7
 10
382.97852
 20
150.88573
 11
382.66689
 21
151.28929
  0
LINE
  8
17DEG_15
  6
CONTINUOUS
 62
    7
 10
382.66689
 20
151.28929
 11
382.3737
 21
151.70587
  0
LINE
  8
17DEG_15
  6
CONTINUOUS
 62
    7
 10
382.3737
 20
151.70587
 11
382.10011
 21
152.13364
  0
LINE
  8
17DEG_15
  6
CONTINUOUS
 62
    7
 10
382.10011
 20
152.13364
 11
381.84692
 21
152.5709
  0
LINE
  8
17DEG_15
  6
CONTINUOUS
 62
    7
 10
381.84692
 20
152.5709
 11
381.61515
 21
153.01562
  0
LINE
  8
17DEG_15
  6
CONTINUOUS
 62
    7
 10
381.61515
 20
153.01562
 11
381.40581
 21
153.46611
  0
LINE
  8
17DEG_15
  6
CONTINUOUS
 62
    7
 10
381.40581
 20
153.46611
 11
381.23115
 21
153.89006
  0
LINE
  8
17DEG_15
  6
CONTINUOUS
 62
    7
 10
381.23115
 20
153.89006
 11
381.07619
 21
154.31733
  0
LINE
  8
17DEG_15
  6
CONTINUOUS
 62
    7
 10
381.07619
 20
154.31733
 11
380.93971
 21
154.74772
  0
LINE
  8
17DEG_15
  6
CONTINUOUS
 62
    7
 10
380.93971
 20
154.74772
 11
380.82118
 21
155.18104
  0
LINE
  8
17DEG_15
  6
CONTINUOUS
 62
    7
 10
380.82118
 20
155.18104
 11
380.71966
 21
155.6172
  0
LINE
  8
17DEG_15
  6
CONTINUOUS
 62
    7
 10
380.71966
 20
155.6172
 11
380.6343
 21
156.05609
  0
LINE
  8
17DEG_15
  6
CONTINUOUS
 62
    7
 10
380.6343
 20
156.05609
 11
380.56438
 21
156.49761
  0
LINE
  8
17DEG_15
  6
CONTINUOUS
 62
    7
 10
380.56438
 20
156.49761
 11
380.50895
 21
156.94154
  0
LINE
  8
17DEG_15
  6
CONTINUOUS
 62
    7
 10
380.50895
 20
156.94154
 11
380.43847
 21
157.83617
  0
LINE
  8
17DEG_15
  6
CONTINUOUS
 62
    7
 10
380.43847
 20
157.83617
 11
380.41636
 21
158.73883
  0
LINE
  8
17DEG_15
  6
CONTINUOUS
 62
    7
 10
380.41636
 20
158.73883
 11
380.43595
 21
159.64848
  0
LINE
  8
17DEG_15
  6
CONTINUOUS
 62
    7
 10
380.43595
 20
159.64848
 11
380.49068
 21
160.56416
  0
LINE
  8
17DEG_15
  6
CONTINUOUS
 62
    7
 10
380.49068
 20
160.56416
 11
380.57411
 21
161.48446
  0
LINE
  8
17DEG_15
  6
CONTINUOUS
 62
    7
 10
380.57411
 20
161.48446
 11
380.67945
 21
162.40854
  0
LINE
  8
17DEG_15
  6
CONTINUOUS
 62
    7
 10
380.67945
 20
162.40854
 11
380.93001
 21
164.26336
  0
LINE
  8
17DEG_15
  6
CONTINUOUS
 62
    7
 10
380.93001
 20
164.26336
 11
381.18957
 21
166.11971
  0
LINE
  8
17DEG_15
  6
CONTINUOUS
 62
    7
 10
381.18957
 20
166.11971
 11
381.30642
 21
167.04568
  0
LINE
  8
17DEG_15
  6
CONTINUOUS
 62
    7
 10
381.30642
 20
167.04568
 11
381.40581
 21
167.96866
  0
LINE
  8
17DEG_15
  6
CONTINUOUS
 62
    7
 10
381.40581
 20
167.96866
 11
381.50575
 21
169.23546
  0
LINE
  8
17DEG_15
  6
CONTINUOUS
 62
    7
 10
381.50575
 20
169.23546
 11
381.56573
 21
170.49555
  0
LINE
  8
17DEG_15
  6
CONTINUOUS
 62
    7
 10
381.56573
 20
170.49555
 11
381.59142
 21
171.7498
  0
LINE
  8
17DEG_15
  6
CONTINUOUS
 62
    7
 10
381.59142
 20
171.7498
 11
381.58862
 21
172.99934
  0
LINE
  8
17DEG_15
  6
CONTINUOUS
 62
    7
 10
381.58862
 20
172.99934
 11
381.56286
 21
174.24509
  0
LINE
  8
17DEG_15
  6
CONTINUOUS
 62
    7
 10
381.56286
 20
174.24509
 11
381.52003
 21
175.4878
  0
LINE
  8
17DEG_15
  6
CONTINUOUS
 62
    7
 10
381.52003
 20
175.4878
 11
381.40581
 21
177.96871
  0
LINE
  8
17DEG_15
  6
CONTINUOUS
 62
    7
 10
421.90314
 20
149.46869
 11
401.90311
 21
149.46869
  0
LINE
  8
17DEG_15
  6
CONTINUOUS
 62
    7
 10
401.90311
 20
149.46869
 11
401.90311
 21
147.46873
  0
LINE
  8
17DEG_15
  6
CONTINUOUS
 62
    7
 10
401.90311
 20
147.46873
 11
421.90314
 21
147.46873
  0
LINE
  8
17DEG_15
  6
CONTINUOUS
 62
    7
 10
421.90314
 20
147.46873
 11
421.90314
 21
149.46869
  0
LINE
  8
17DEG_15
  6
CONTINUOUS
 62
    7
 10
365.64746
 20
163.46868
 11
364.7533
 21
163.33214
  0
LINE
  8
17DEG_15
  6
CONTINUOUS
 62
    7
 10
364.7533
 20
163.33214
 11
363.86229
 21
163.20863
  0
LINE
  8
17DEG_15
  6
CONTINUOUS
 62
    7
 10
363.86229
 20
163.20863
 11
362.97772
 21
163.11104
  0
LINE
  8
17DEG_15
  6
CONTINUOUS
 62
    7
 10
362.97772
 20
163.11104
 11
362.10229
 21
163.05252
  0
LINE
  8
17DEG_15
  6
CONTINUOUS
 62
    7
 10
362.10229
 20
163.05252
 11
361.66912
 21
163.04196
  0
LINE
  8
17DEG_15
  6
CONTINUOUS
 62
    7
 10
361.66912
 20
163.04196
 11
361.23934
 21
163.04601
  0
LINE
  8
17DEG_15
  6
CONTINUOUS
 62
    7
 10
361.23934
 20
163.04601
 11
360.81363
 21
163.06637
  0
LINE
  8
17DEG_15
  6
CONTINUOUS
 62
    7
 10
360.81363
 20
163.06637
 11
360.39222
 21
163.10459
  0
LINE
  8
17DEG_15
  6
CONTINUOUS
 62
    7
 10
360.39222
 20
163.10459
 11
359.97543
 21
163.16228
  0
LINE
  8
17DEG_15
  6
CONTINUOUS
 62
    7
 10
359.97543
 20
163.16228
 11
359.56374
 21
163.24117
  0
LINE
  8
17DEG_15
  6
CONTINUOUS
 62
    7
 10
359.56374
 20
163.24117
 11
359.15749
 21
163.34269
  0
LINE
  8
17DEG_15
  6
CONTINUOUS
 62
    7
 10
359.15749
 20
163.34269
 11
358.75718
 21
163.46868
  0
LINE
  8
17DEG_15
  6
CONTINUOUS
 62
    7
 10
358.75718
 20
163.46868
 11
358.31299
 21
163.64159
  0
LINE
  8
17DEG_15
  6
CONTINUOUS
 62
    7
 10
358.31299
 20
163.64159
 11
357.87782
 21
163.84559
  0
LINE
  8
17DEG_15
  6
CONTINUOUS
 62
    7
 10
357.87782
 20
163.84559
 11
357.45242
 21
164.07917
  0
LINE
  8
17DEG_15
  6
CONTINUOUS
 62
    7
 10
357.45242
 20
164.07917
 11
357.03794
 21
164.34037
  0
LINE
  8
17DEG_15
  6
CONTINUOUS
 62
    7
 10
357.03794
 20
164.34037
 11
356.63529
 21
164.62729
  0
LINE
  8
17DEG_15
  6
CONTINUOUS
 62
    7
 10
356.63529
 20
164.62729
 11
356.2453
 21
164.93836
  0
LINE
  8
17DEG_15
  6
CONTINUOUS
 62
    7
 10
356.2453
 20
164.93836
 11
355.86911
 21
165.27148
  0
LINE
  8
17DEG_15
  6
CONTINUOUS
 62
    7
 10
355.86911
 20
165.27148
 11
355.50754
 21
165.62502
  0
LINE
  8
17DEG_15
  6
CONTINUOUS
 62
    7
 10
355.50754
 20
165.62502
 11
355.16175
 21
165.99704
  0
LINE
  8
17DEG_15
  6
CONTINUOUS
 62
    7
 10
355.16175
 20
165.99704
 11
354.83248
 21
166.38574
  0
LINE
  8
17DEG_15
  6
CONTINUOUS
 62
    7
 10
354.83248
 20
166.38574
 11
354.52089
 21
166.78931
  0
LINE
  8
17DEG_15
  6
CONTINUOUS
 62
    7
 10
354.52089
 20
166.78931
 11
354.2277
 21
167.20589
  0
LINE
  8
17DEG_15
  6
CONTINUOUS
 62
    7
 10
354.2277
 20
167.20589
 11
353.95411
 21
167.63365
  0
LINE
  8
17DEG_15
  6
CONTINUOUS
 62
    7
 10
353.95411
 20
167.63365
 11
353.70088
 21
168.07091
  0
LINE
  8
17DEG_15
  6
CONTINUOUS
 62
    7
 10
353.70088
 20
168.07091
 11
353.46914
 21
168.51563
  0
LINE
  8
17DEG_15
  6
CONTINUOUS
 62
    7
 10
353.46914
 20
168.51563
 11
353.2598
 21
168.96614
  0
LINE
  8
17DEG_15
  6
CONTINUOUS
 62
    7
 10
353.2598
 20
168.96614
 11
353.08514
 21
169.39005
  0
LINE
  8
17DEG_15
  6
CONTINUOUS
 62
    7
 10
353.08514
 20
169.39005
 11
352.93019
 21
169.81734
  0
LINE
  8
17DEG_15
  6
CONTINUOUS
 62
    7
 10
352.93019
 20
169.81734
 11
352.7937
 21
170.24773
  0
LINE
  8
17DEG_15
  6
CONTINUOUS
 62
    7
 10
352.7937
 20
170.24773
 11
352.67518
 21
170.68105
  0
LINE
  8
17DEG_15
  6
CONTINUOUS
 62
    7
 10
352.67518
 20
170.68105
 11
352.57366
 21
171.11721
  0
LINE
  8
17DEG_15
  6
CONTINUOUS
 62
    7
 10
352.57366
 20
171.11721
 11
352.4883
 21
171.55611
  0
LINE
  8
17DEG_15
  6
CONTINUOUS
 62
    7
 10
352.4883
 20
171.55611
 11
352.41838
 21
171.99762
  0
LINE
  8
17DEG_15
  6
CONTINUOUS
 62
    7
 10
352.41838
 20
171.99762
 11
352.36295
 21
172.44155
  0
LINE
  8
17DEG_15
  6
CONTINUOUS
 62
    7
 10
352.36295
 20
172.44155
 11
352.29251
 21
173.33618
  0
LINE
  8
17DEG_15
  6
CONTINUOUS
 62
    7
 10
352.29251
 20
173.33618
 11
352.27035
 21
174.23884
  0
LINE
  8
17DEG_15
  6
CONTINUOUS
 62
    7
 10
352.27035
 20
174.23884
 11
352.28995
 21
175.14849
  0
LINE
  8
17DEG_15
  6
CONTINUOUS
 62
    7
 10
352.28995
 20
175.14849
 11
352.34468
 21
176.06417
  0
LINE
  8
17DEG_15
  6
CONTINUOUS
 62
    7
 10
352.34468
 20
176.06417
 11
352.42811
 21
176.98447
  0
LINE
  8
17DEG_15
  6
CONTINUOUS
 62
    7
 10
352.42811
 20
176.98447
 11
352.53348
 21
177.90855
  0
LINE
  8
17DEG_15
  6
CONTINUOUS
 62
    7
 10
352.53348
 20
177.90855
 11
352.78401
 21
179.76337
  0
LINE
  8
17DEG_15
  6
CONTINUOUS
 62
    7
 10
352.78401
 20
179.76337
 11
353.04357
 21
181.61972
  0
LINE
  8
17DEG_15
  6
CONTINUOUS
 62
    7
 10
353.04357
 20
181.61972
 11
353.16042
 21
182.54569
  0
LINE
  8
17DEG_15
  6
CONTINUOUS
 62
    7
 10
353.16042
 20
182.54569
 11
353.2598
 21
183.46867
  0
LINE
  8
17DEG_15
  6
CONTINUOUS
 62
    7
 10
353.2598
 20
183.46867
 11
353.35975
 21
184.73547
  0
LINE
  8
17DEG_15
  6
CONTINUOUS
 62
    7
 10
353.35975
 20
184.73547
 11
353.41973
 21
185.99556
  0
LINE
  8
17DEG_15
  6
CONTINUOUS
 62
    7
 10
353.41973
 20
185.99556
 11
353.44542
 21
187.24982
  0
LINE
  8
17DEG_15
  6
CONTINUOUS
 62
    7
 10
353.44542
 20
187.24982
 11
353.44262
 21
188.49935
  0
LINE
  8
17DEG_15
  6
CONTINUOUS
 62
    7
 10
353.44262
 20
188.49935
 11
353.41686
 21
189.7451
  0
LINE
  8
17DEG_15
  6
CONTINUOUS
 62
    7
 10
353.41686
 20
189.7451
 11
353.37403
 21
190.98781
  0
LINE
  8
17DEG_15
  6
CONTINUOUS
 62
    7
 10
353.37403
 20
190.98781
 11
353.2598
 21
193.46872
  0
LINE
  8
17DEG_15
  6
CONTINUOUS
 62
    7
 10
393.75714
 20
164.96871
 11
373.75711
 21
164.96871
  0
LINE
  8
17DEG_15
  6
CONTINUOUS
 62
    7
 10
373.75711
 20
164.96871
 11
373.75711
 21
162.96874
  0
LINE
  8
17DEG_15
  6
CONTINUOUS
 62
    7
 10
373.75711
 20
162.96874
 11
393.75714
 21
162.96874
  0
LINE
  8
17DEG_15
  6
CONTINUOUS
 62
    7
 10
393.75714
 20
162.96874
 11
393.75714
 21
164.96871
  0
LINE
  8
17DEG_15
  6
CONTINUOUS
 62
    7
 10
334.47054
 20
181.96864
 11
333.57638
 21
181.83211
  0
LINE
  8
17DEG_15
  6
CONTINUOUS
 62
    7
 10
333.57638
 20
181.83211
 11
332.68537
 21
181.70859
  0
LINE
  8
17DEG_15
  6
CONTINUOUS
 62
    7
 10
332.68537
 20
181.70859
 11
331.80076
 21
181.61101
  0
LINE
  8
17DEG_15
  6
CONTINUOUS
 62
    7
 10
331.80076
 20
181.61101
 11
330.92536
 21
181.55248
  0
LINE
  8
17DEG_15
  6
CONTINUOUS
 62
    7
 10
330.92536
 20
181.55248
 11
330.49219
 21
181.54193
  0
LINE
  8
17DEG_15
  6
CONTINUOUS
 62
    7
 10
330.49219
 20
181.54193
 11
330.06242
 21
181.54597
  0
LINE
  8
17DEG_15
  6
CONTINUOUS
 62
    7
 10
330.06242
 20
181.54597
 11
329.6367
 21
181.56635
  0
LINE
  8
17DEG_15
  6
CONTINUOUS
 62
    7
 10
329.6367
 20
181.56635
 11
329.21529
 21
181.60455
  0
LINE
  8
17DEG_15
  6
CONTINUOUS
 62
    7
 10
329.21529
 20
181.60455
 11
328.7985
 21
181.66226
  0
LINE
  8
17DEG_15
  6
CONTINUOUS
 62
    7
 10
328.7985
 20
181.66226
 11
328.38682
 21
181.74114
  0
LINE
  8
17DEG_15
  6
CONTINUOUS
 62
    7
 10
328.38682
 20
181.74114
 11
327.98056
 21
181.84266
  0
LINE
  8
17DEG_15
  6
CONTINUOUS
 62
    7
 10
327.98056
 20
181.84266
 11
327.58025
 21
181.96864
  0
LINE
  8
17DEG_15
  6
CONTINUOUS
 62
    7
 10
327.58025
 20
181.96864
 11
327.13606
 21
182.14155
  0
LINE
  8
17DEG_15
  6
CONTINUOUS
 62
    7
 10
327.13606
 20
182.14155
 11
326.7009
 21
182.34554
  0
LINE
  8
17DEG_15
  6
CONTINUOUS
 62
    7
 10
326.7009
 20
182.34554
 11
326.2755
 21
182.57913
  0
LINE
  8
17DEG_15
  6
CONTINUOUS
 62
    7
 10
326.2755
 20
182.57913
 11
325.86102
 21
182.84033
  0
LINE
  8
17DEG_15
  6
CONTINUOUS
 62
    7
 10
325.86102
 20
182.84033
 11
325.45836
 21
183.12726
  0
LINE
  8
17DEG_15
  6
CONTINUOUS
 62
    7
 10
325.45836
 20
183.12726
 11
325.06838
 21
183.43833
  0
LINE
  8
17DEG_15
  6
CONTINUOUS
 62
    7
 10
325.06838
 20
183.43833
 11
324.69218
 21
183.77145
  0
LINE
  8
17DEG_15
  6
CONTINUOUS
 62
    7
 10
324.69218
 20
183.77145
 11
324.33061
 21
184.12498
  0
LINE
  8
17DEG_15
  6
CONTINUOUS
 62
    7
 10
324.33061
 20
184.12498
 11
323.98483
 21
184.497
  0
LINE
  8
17DEG_15
  6
CONTINUOUS
 62
    7
 10
323.98483
 20
184.497
 11
323.65556
 21
184.88571
  0
LINE
  8
17DEG_15
  6
CONTINUOUS
 62
    7
 10
323.65556
 20
184.88571
 11
323.344
 21
185.28927
  0
LINE
  8
17DEG_15
  6
CONTINUOUS
 62
    7
 10
323.344
 20
185.28927
 11
323.05077
 21
185.70587
  0
LINE
  8
17DEG_15
  6
CONTINUOUS
 62
    7
 10
323.05077
 20
185.70587
 11
322.77718
 21
186.13361
  0
LINE
  8
17DEG_15
  6
CONTINUOUS
 62
    7
 10
322.77718
 20
186.13361
 11
322.52396
 21
186.57088
  0
LINE
  8
17DEG_15
  6
CONTINUOUS
 62
    7
 10
322.52396
 20
186.57088
 11
322.29222
 21
187.01559
  0
LINE
  8
17DEG_15
  6
CONTINUOUS
 62
    7
 10
322.29222
 20
187.01559
 11
322.08288
 21
187.46608
  0
LINE
  8
17DEG_15
  6
CONTINUOUS
 62
    7
 10
322.08288
 20
187.46608
 11
321.90822
 21
187.89001
  0
LINE
  8
17DEG_15
  6
CONTINUOUS
 62
    7
 10
321.90822
 20
187.89001
 11
321.75326
 21
188.3173
  0
LINE
  8
17DEG_15
  6
CONTINUOUS
 62
    7
 10
321.75326
 20
188.3173
 11
321.61678
 21
188.74771
  0
LINE
  8
17DEG_15
  6
CONTINUOUS
 62
    7
 10
321.61678
 20
188.74771
 11
321.49829
 21
189.18102
  0
LINE
  8
17DEG_15
  6
CONTINUOUS
 62
    7
 10
321.49829
 20
189.18102
 11
321.39673
 21
189.61718
  0
LINE
  8
17DEG_15
  6
CONTINUOUS
 62
    7
 10
321.39673
 20
189.61718
 11
321.31138
 21
190.05607
  0
LINE
  8
17DEG_15
  6
CONTINUOUS
 62
    7
 10
321.31138
 20
190.05607
 11
321.24146
 21
190.49758
  0
LINE
  8
17DEG_15
  6
CONTINUOUS
 62
    7
 10
321.24146
 20
190.49758
 11
321.18603
 21
190.94151
  0
LINE
  8
17DEG_15
  6
CONTINUOUS
 62
    7
 10
321.18603
 20
190.94151
 11
321.11555
 21
191.83615
  0
LINE
  8
17DEG_15
  6
CONTINUOUS
 62
    7
 10
321.11555
 20
191.83615
 11
321.09343
 21
192.73881
  0
LINE
  8
17DEG_15
  6
CONTINUOUS
 62
    7
 10
321.09343
 20
192.73881
 11
321.11303
 21
193.64845
  0
LINE
  8
17DEG_15
  6
CONTINUOUS
 62
    7
 10
321.11303
 20
193.64845
 11
321.16776
 21
194.56413
  0
LINE
  8
17DEG_15
  6
CONTINUOUS
 62
    7
 10
321.16776
 20
194.56413
 11
321.25119
 21
195.48443
  0
LINE
  8
17DEG_15
  6
CONTINUOUS
 62
    7
 10
321.25119
 20
195.48443
 11
321.35652
 21
196.40851
  0
LINE
  8
17DEG_15
  6
CONTINUOUS
 62
    7
 10
321.35652
 20
196.40851
 11
321.60709
 21
198.26334
  0
LINE
  8
17DEG_15
  6
CONTINUOUS
 62
    7
 10
321.60709
 20
198.26334
 11
321.86664
 21
200.11969
  0
LINE
  8
17DEG_15
  6
CONTINUOUS
 62
    7
 10
321.86664
 20
200.11969
 11
321.98349
 21
201.04566
  0
LINE
  8
17DEG_15
  6
CONTINUOUS
 62
    7
 10
321.98349
 20
201.04566
 11
322.08288
 21
201.96863
  0
LINE
  8
17DEG_15
  6
CONTINUOUS
 62
    7
 10
322.08288
 20
201.96863
 11
322.18282
 21
203.23544
  0
LINE
  8
17DEG_15
  6
CONTINUOUS
 62
    7
 10
322.18282
 20
203.23544
 11
322.24281
 21
204.49552
  0
LINE
  8
17DEG_15
  6
CONTINUOUS
 62
    7
 10
322.24281
 20
204.49552
 11
322.26849
 21
205.74978
  0
LINE
  8
17DEG_15
  6
CONTINUOUS
 62
    7
 10
322.26849
 20
205.74978
 11
322.26569
 21
206.99931
  0
LINE
  8
17DEG_15
  6
CONTINUOUS
 62
    7
 10
322.26569
 20
206.99931
 11
322.23994
 21
208.24507
  0
LINE
  8
17DEG_15
  6
CONTINUOUS
 62
    7
 10
322.23994
 20
208.24507
 11
322.1971
 21
209.48778
  0
LINE
  8
17DEG_15
  6
CONTINUOUS
 62
    7
 10
322.1971
 20
209.48778
 11
322.08288
 21
211.96868
  0
LINE
  8
17DEG_15
  6
CONTINUOUS
 62
    7
 10
362.58021
 20
183.46867
 11
342.58019
 21
183.46867
  0
LINE
  8
17DEG_15
  6
CONTINUOUS
 62
    7
 10
342.58019
 20
183.46867
 11
342.58019
 21
181.4687
  0
LINE
  8
17DEG_15
  6
CONTINUOUS
 62
    7
 10
342.58019
 20
181.4687
 11
362.58021
 21
181.4687
  0
LINE
  8
17DEG_15
  6
CONTINUOUS
 62
    7
 10
362.58021
 20
181.4687
 11
362.58021
 21
183.46867
  0
LINE
  8
17DEG_15
  6
CONTINUOUS
 62
    7
 10
307.19087
 20
197.9687
 11
306.29671
 21
197.83216
  0
LINE
  8
17DEG_15
  6
CONTINUOUS
 62
    7
 10
306.29671
 20
197.83216
 11
305.4057
 21
197.70865
  0
LINE
  8
17DEG_15
  6
CONTINUOUS
 62
    7
 10
305.4057
 20
197.70865
 11
304.5211
 21
197.61107
  0
LINE
  8
17DEG_15
  6
CONTINUOUS
 62
    7
 10
304.5211
 20
197.61107
 11
303.6457
 21
197.55254
  0
LINE
  8
17DEG_15
  6
CONTINUOUS
 62
    7
 10
303.6457
 20
197.55254
 11
303.21253
 21
197.54199
  0
LINE
  8
17DEG_15
  6
CONTINUOUS
 62
    7
 10
303.21253
 20
197.54199
 11
302.78275
 21
197.54603
  0
LINE
  8
17DEG_15
  6
CONTINUOUS
 62
    7
 10
302.78275
 20
197.54603
 11
302.35704
 21
197.56639
  0
LINE
  8
17DEG_15
  6
CONTINUOUS
 62
    7
 10
302.35704
 20
197.56639
 11
301.93563
 21
197.60461
  0
LINE
  8
17DEG_15
  6
CONTINUOUS
 62
    7
 10
301.93563
 20
197.60461
 11
301.51884
 21
197.6623
  0
LINE
  8
17DEG_15
  6
CONTINUOUS
 62
    7
 10
301.51884
 20
197.6623
 11
301.10715
 21
197.74119
  0
LINE
  8
17DEG_15
  6
CONTINUOUS
 62
    7
 10
301.10715
 20
197.74119
 11
300.7009
 21
197.84272
  0
LINE
  8
17DEG_15
  6
CONTINUOUS
 62
    7
 10
300.7009
 20
197.84272
 11
300.30062
 21
197.9687
  0
LINE
  8
17DEG_15
  6
CONTINUOUS
 62
    7
 10
300.30062
 20
197.9687
 11
299.8564
 21
198.14161
  0
LINE
  8
17DEG_15
  6
CONTINUOUS
 62
    7
 10
299.8564
 20
198.14161
 11
299.42123
 21
198.34559
  0
LINE
  8
17DEG_15
  6
CONTINUOUS
 62
    7
 10
299.42123
 20
198.34559
 11
298.99583
 21
198.57919
  0
LINE
  8
17DEG_15
  6
CONTINUOUS
 62
    7
 10
298.99583
 20
198.57919
 11
298.58135
 21
198.84039
  0
LINE
  8
17DEG_15
  6
CONTINUOUS
 62
    7
 10
298.58135
 20
198.84039
 11
298.1787
 21
199.12731
  0
LINE
  8
17DEG_15
  6
CONTINUOUS
 62
    7
 10
298.1787
 20
199.12731
 11
297.78871
 21
199.43838
  0
LINE
  8
17DEG_15
  6
CONTINUOUS
 62
    7
 10
297.78871
 20
199.43838
 11
297.41252
 21
199.7715
  0
LINE
  8
17DEG_15
  6
CONTINUOUS
 62
    7
 10
297.41252
 20
199.7715
 11
297.05095
 21
200.12506
  0
LINE
  8
17DEG_15
  6
CONTINUOUS
 62
    7
 10
297.05095
 20
200.12506
 11
296.70516
 21
200.49706
  0
LINE
  8
17DEG_15
  6
CONTINUOUS
 62
    7
 10
296.70516
 20
200.49706
 11
296.37589
 21
200.88576
  0
LINE
  8
17DEG_15
  6
CONTINUOUS
 62
    7
 10
296.37589
 20
200.88576
 11
296.0643
 21
201.28933
  0
LINE
  8
17DEG_15
  6
CONTINUOUS
 62
    7
 10
296.0643
 20
201.28933
 11
295.77111
 21
201.70591
  0
LINE
  8
17DEG_15
  6
CONTINUOUS
 62
    7
 10
295.77111
 20
201.70591
 11
295.49752
 21
202.13367
  0
LINE
  8
17DEG_15
  6
CONTINUOUS
 62
    7
 10
295.49752
 20
202.13367
 11
295.24429
 21
202.57093
  0
LINE
  8
17DEG_15
  6
CONTINUOUS
 62
    7
 10
295.24429
 20
202.57093
 11
295.01255
 21
203.01565
  0
LINE
  8
17DEG_15
  6
CONTINUOUS
 62
    7
 10
295.01255
 20
203.01565
 11
294.80325
 21
203.46614
  0
LINE
  8
17DEG_15
  6
CONTINUOUS
 62
    7
 10
294.80325
 20
203.46614
 11
294.62855
 21
203.89007
  0
LINE
  8
17DEG_15
  6
CONTINUOUS
 62
    7
 10
294.62855
 20
203.89007
 11
294.4736
 21
204.31736
  0
LINE
  8
17DEG_15
  6
CONTINUOUS
 62
    7
 10
294.4736
 20
204.31736
 11
294.33712
 21
204.74775
  0
LINE
  8
17DEG_15
  6
CONTINUOUS
 62
    7
 10
294.33712
 20
204.74775
 11
294.21859
 21
205.18107
  0
LINE
  8
17DEG_15
  6
CONTINUOUS
 62
    7
 10
294.21859
 20
205.18107
 11
294.11707
 21
205.61724
  0
LINE
  8
17DEG_15
  6
CONTINUOUS
 62
    7
 10
294.11707
 20
205.61724
 11
294.03171
 21
206.05613
  0
LINE
  8
17DEG_15
  6
CONTINUOUS
 62
    7
 10
294.03171
 20
206.05613
 11
293.96179
 21
206.49764
  0
LINE
  8
17DEG_15
  6
CONTINUOUS
 62
    7
 10
293.96179
 20
206.49764
 11
293.90636
 21
206.94157
  0
LINE
  8
17DEG_15
  6
CONTINUOUS
 62
    7
 10
293.90636
 20
206.94157
 11
293.83588
 21
207.8362
  0
LINE
  8
17DEG_15
  6
CONTINUOUS
 62
    7
 10
293.83588
 20
207.8362
 11
293.81376
 21
208.73886
  0
LINE
  8
17DEG_15
  6
CONTINUOUS
 62
    7
 10
293.81376
 20
208.73886
 11
293.83336
 21
209.64851
  0
LINE
  8
17DEG_15
  6
CONTINUOUS
 62
    7
 10
293.83336
 20
209.64851
 11
293.88809
 21
210.56419
  0
LINE
  8
17DEG_15
  6
CONTINUOUS
 62
    7
 10
293.88809
 20
210.56419
 11
293.97152
 21
211.48451
  0
LINE
  8
17DEG_15
  6
CONTINUOUS
 62
    7
 10
293.97152
 20
211.48451
 11
294.07686
 21
212.40857
  0
LINE
  8
17DEG_15
  6
CONTINUOUS
 62
    7
 10
294.07686
 20
212.40857
 11
294.32742
 21
214.26339
  0
LINE
  8
17DEG_15
  6
CONTINUOUS
 62
    7
 10
294.32742
 20
214.26339
 11
294.58698
 21
216.11974
  0
LINE
  8
17DEG_15
  6
CONTINUOUS
 62
    7
 10
294.58698
 20
216.11974
 11
294.70383
 21
217.04571
  0
LINE
  8
17DEG_15
  6
CONTINUOUS
 62
    7
 10
294.70383
 20
217.04571
 11
294.80325
 21
217.96869
  0
LINE
  8
17DEG_15
  6
CONTINUOUS
 62
    7
 10
294.80325
 20
217.96869
 11
294.90316
 21
219.23549
  0
LINE
  8
17DEG_15
  6
CONTINUOUS
 62
    7
 10
294.90316
 20
219.23549
 11
294.96314
 21
220.49558
  0
LINE
  8
17DEG_15
  6
CONTINUOUS
 62
    7
 10
294.96314
 20
220.49558
 11
294.98883
 21
221.74984
  0
LINE
  8
17DEG_15
  6
CONTINUOUS
 62
    7
 10
294.98883
 20
221.74984
 11
294.98603
 21
222.99937
  0
LINE
  8
17DEG_15
  6
CONTINUOUS
 62
    7
 10
294.98603
 20
222.99937
 11
294.96027
 21
224.24512
  0
LINE
  8
17DEG_15
  6
CONTINUOUS
 62
    7
 10
294.96027
 20
224.24512
 11
294.91744
 21
225.48783
  0
LINE
  8
17DEG_15
  6
CONTINUOUS
 62
    7
 10
294.91744
 20
225.48783
 11
294.80325
 21
227.96874
  0
LINE
  8
17DEG_15
  6
CONTINUOUS
 62
    7
 10
335.30055
 20
199.46873
 11
315.30052
 21
199.46873
  0
LINE
  8
17DEG_15
  6
CONTINUOUS
 62
    7
 10
315.30052
 20
199.46873
 11
315.30052
 21
197.46876
  0
LINE
  8
17DEG_15
  6
CONTINUOUS
 62
    7
 10
315.30052
 20
197.46876
 11
335.30055
 21
197.46876
  0
LINE
  8
17DEG_15
  6
CONTINUOUS
 62
    7
 10
335.30055
 20
197.46876
 11
335.30055
 21
199.46873
  0
LINE
  8
17DEG_15
  6
CONTINUOUS
 62
    7
 10
280.77704
 20
213.46871
 11
279.88288
 21
213.33218
  0
LINE
  8
17DEG_15
  6
CONTINUOUS
 62
    7
 10
279.88288
 20
213.33218
 11
278.99185
 21
213.20866
  0
LINE
  8
17DEG_15
  6
CONTINUOUS
 62
    7
 10
278.99185
 20
213.20866
 11
278.10725
 21
213.11108
  0
LINE
  8
17DEG_15
  6
CONTINUOUS
 62
    7
 10
278.10725
 20
213.11108
 11
277.23186
 21
213.05255
  0
LINE
  8
17DEG_15
  6
CONTINUOUS
 62
    7
 10
277.23186
 20
213.05255
 11
276.79868
 21
213.042
  0
LINE
  8
17DEG_15
  6
CONTINUOUS
 62
    7
 10
276.79868
 20
213.042
 11
276.3689
 21
213.04604
  0
LINE
  8
17DEG_15
  6
CONTINUOUS
 62
    7
 10
276.3689
 20
213.04604
 11
275.94319
 21
213.06641
  0
LINE
  8
17DEG_15
  6
CONTINUOUS
 62
    7
 10
275.94319
 20
213.06641
 11
275.52178
 21
213.10462
  0
LINE
  8
17DEG_15
  6
CONTINUOUS
 62
    7
 10
275.52178
 20
213.10462
 11
275.10498
 21
213.16231
  0
LINE
  8
17DEG_15
  6
CONTINUOUS
 62
    7
 10
275.10498
 20
213.16231
 11
274.6933
 21
213.24122
  0
LINE
  8
17DEG_15
  6
CONTINUOUS
 62
    7
 10
274.6933
 20
213.24122
 11
274.28706
 21
213.34273
  0
LINE
  8
17DEG_15
  6
CONTINUOUS
 62
    7
 10
274.28706
 20
213.34273
 11
273.88674
 21
213.46871
  0
LINE
  8
17DEG_15
  6
CONTINUOUS
 62
    7
 10
273.88674
 20
213.46871
 11
273.44256
 21
213.64162
  0
LINE
  8
17DEG_15
  6
CONTINUOUS
 62
    7
 10
273.44256
 20
213.64162
 11
273.0074
 21
213.84561
  0
LINE
  8
17DEG_15
  6
CONTINUOUS
 62
    7
 10
273.0074
 20
213.84561
 11
272.58198
 21
214.0792
  0
LINE
  8
17DEG_15
  6
CONTINUOUS
 62
    7
 10
272.58198
 20
214.0792
 11
272.16752
 21
214.3404
  0
LINE
  8
17DEG_15
  6
CONTINUOUS
 62
    7
 10
272.16752
 20
214.3404
 11
271.76486
 21
214.62733
  0
LINE
  8
17DEG_15
  6
CONTINUOUS
 62
    7
 10
271.76486
 20
214.62733
 11
271.37488
 21
214.9384
  0
LINE
  8
17DEG_15
  6
CONTINUOUS
 62
    7
 10
271.37488
 20
214.9384
 11
270.99866
 21
215.27152
  0
LINE
  8
17DEG_15
  6
CONTINUOUS
 62
    7
 10
270.99866
 20
215.27152
 11
270.63711
 21
215.62505
  0
LINE
  8
17DEG_15
  6
CONTINUOUS
 62
    7
 10
270.63711
 20
215.62505
 11
270.29133
 21
215.99707
  0
LINE
  8
17DEG_15
  6
CONTINUOUS
 62
    7
 10
270.29133
 20
215.99707
 11
269.96204
 21
216.38578
  0
LINE
  8
17DEG_15
  6
CONTINUOUS
 62
    7
 10
269.96204
 20
216.38578
 11
269.65044
 21
216.78934
  0
LINE
  8
17DEG_15
  6
CONTINUOUS
 62
    7
 10
269.65044
 20
216.78934
 11
269.35726
 21
217.20592
  0
LINE
  8
17DEG_15
  6
CONTINUOUS
 62
    7
 10
269.35726
 20
217.20592
 11
269.08368
 21
217.63368
  0
LINE
  8
17DEG_15
  6
CONTINUOUS
 62
    7
 10
269.08368
 20
217.63368
 11
268.83044
 21
218.07094
  0
LINE
  8
17DEG_15
  6
CONTINUOUS
 62
    7
 10
268.83044
 20
218.07094
 11
268.5987
 21
218.51566
  0
LINE
  8
17DEG_15
  6
CONTINUOUS
 62
    7
 10
268.5987
 20
218.51566
 11
268.38936
 21
218.96615
  0
LINE
  8
17DEG_15
  6
CONTINUOUS
 62
    7
 10
268.38936
 20
218.96615
 11
268.21472
 21
219.39008
  0
LINE
  8
17DEG_15
  6
CONTINUOUS
 62
    7
 10
268.21472
 20
219.39008
 11
268.05974
 21
219.81737
  0
LINE
  8
17DEG_15
  6
CONTINUOUS
 62
    7
 10
268.05974
 20
219.81737
 11
267.92326
 21
220.24776
  0
LINE
  8
17DEG_15
  6
CONTINUOUS
 62
    7
 10
267.92326
 20
220.24776
 11
267.80474
 21
220.68109
  0
LINE
  8
17DEG_15
  6
CONTINUOUS
 62
    7
 10
267.80474
 20
220.68109
 11
267.70321
 21
221.11725
  0
LINE
  8
17DEG_15
  6
CONTINUOUS
 62
    7
 10
267.70321
 20
221.11725
 11
267.61788
 21
221.55614
  0
LINE
  8
17DEG_15
  6
CONTINUOUS
 62
    7
 10
267.61788
 20
221.55614
 11
267.54796
 21
221.99765
  0
LINE
  8
17DEG_15
  6
CONTINUOUS
 62
    7
 10
267.54796
 20
221.99765
 11
267.49251
 21
222.44158
  0
LINE
  8
17DEG_15
  6
CONTINUOUS
 62
    7
 10
267.49251
 20
222.44158
 11
267.42203
 21
223.33621
  0
LINE
  8
17DEG_15
  6
CONTINUOUS
 62
    7
 10
267.42203
 20
223.33621
 11
267.39991
 21
224.23888
  0
LINE
  8
17DEG_15
  6
CONTINUOUS
 62
    7
 10
267.39991
 20
224.23888
 11
267.41951
 21
225.1485
  0
LINE
  8
17DEG_15
  6
CONTINUOUS
 62
    7
 10
267.41951
 20
225.1485
 11
267.47424
 21
226.06422
  0
LINE
  8
17DEG_15
  6
CONTINUOUS
 62
    7
 10
267.47424
 20
226.06422
 11
267.55769
 21
226.98452
  0
LINE
  8
17DEG_15
  6
CONTINUOUS
 62
    7
 10
267.55769
 20
226.98452
 11
267.66301
 21
227.90858
  0
LINE
  8
17DEG_15
  6
CONTINUOUS
 62
    7
 10
267.66301
 20
227.90858
 11
267.91359
 21
229.76342
  0
LINE
  8
17DEG_15
  6
CONTINUOUS
 62
    7
 10
267.91359
 20
229.76342
 11
268.17315
 21
231.61977
  0
LINE
  8
17DEG_15
  6
CONTINUOUS
 62
    7
 10
268.17315
 20
231.61977
 11
268.28998
 21
232.54574
  0
LINE
  8
17DEG_15
  6
CONTINUOUS
 62
    7
 10
268.28998
 20
232.54574
 11
268.38936
 21
233.46872
  0
LINE
  8
17DEG_15
  6
CONTINUOUS
 62
    7
 10
268.38936
 20
233.46872
 11
268.48933
 21
234.73552
  0
LINE
  8
17DEG_15
  6
CONTINUOUS
 62
    7
 10
268.48933
 20
234.73552
 11
268.54929
 21
235.99559
  0
LINE
  8
17DEG_15
  6
CONTINUOUS
 62
    7
 10
268.54929
 20
235.99559
 11
268.57499
 21
237.24987
  0
LINE
  8
17DEG_15
  6
CONTINUOUS
 62
    7
 10
268.57499
 20
237.24987
 11
268.57218
 21
238.49936
  0
LINE
  8
17DEG_15
  6
CONTINUOUS
 62
    7
 10
268.57218
 20
238.49936
 11
268.54644
 21
239.74514
  0
LINE
  8
17DEG_15
  6
CONTINUOUS
 62
    7
 10
268.54644
 20
239.74514
 11
268.5036
 21
240.98786
  0
LINE
  8
17DEG_15
  6
CONTINUOUS
 62
    7
 10
268.5036
 20
240.98786
 11
268.38936
 21
243.46875
  0
LINE
  8
17DEG_15
  6
CONTINUOUS
 62
    7
 10
308.8867
 20
214.96874
 11
288.88669
 21
214.96874
  0
LINE
  8
17DEG_15
  6
CONTINUOUS
 62
    7
 10
288.88669
 20
214.96874
 11
288.88669
 21
212.96877
  0
LINE
  8
17DEG_15
  6
CONTINUOUS
 62
    7
 10
288.88669
 20
212.96877
 11
308.8867
 21
212.96877
  0
LINE
  8
17DEG_15
  6
CONTINUOUS
 62
    7
 10
308.8867
 20
212.96877
 11
308.8867
 21
214.96874
  0
LINE
  8
17DEG_15
  6
CONTINUOUS
 62
    7
 10
227.51658
 20
243.96871
 11
226.62243
 21
243.83216
  0
LINE
  8
17DEG_15
  6
CONTINUOUS
 62
    7
 10
226.62243
 20
243.83216
 11
225.7314
 21
243.70862
  0
LINE
  8
17DEG_15
  6
CONTINUOUS
 62
    7
 10
225.7314
 20
243.70862
 11
224.84679
 21
243.61108
  0
LINE
  8
17DEG_15
  6
CONTINUOUS
 62
    7
 10
224.84679
 20
243.61108
 11
223.97139
 21
243.55255
  0
LINE
  8
17DEG_15
  6
CONTINUOUS
 62
    7
 10
223.97139
 20
243.55255
 11
223.53822
 21
243.54198
  0
LINE
  8
17DEG_15
  6
CONTINUOUS
 62
    7
 10
223.53822
 20
243.54198
 11
223.10845
 21
243.54602
  0
LINE
  8
17DEG_15
  6
CONTINUOUS
 62
    7
 10
223.10845
 20
243.54602
 11
222.68273
 21
243.56639
  0
LINE
  8
17DEG_15
  6
CONTINUOUS
 62
    7
 10
222.68273
 20
243.56639
 11
222.26132
 21
243.6046
  0
LINE
  8
17DEG_15
  6
CONTINUOUS
 62
    7
 10
222.26132
 20
243.6046
 11
221.84453
 21
243.66229
  0
LINE
  8
17DEG_15
  6
CONTINUOUS
 62
    7
 10
221.84453
 20
243.66229
 11
221.43285
 21
243.7412
  0
LINE
  8
17DEG_15
  6
CONTINUOUS
 62
    7
 10
221.43285
 20
243.7412
 11
221.02659
 21
243.84272
  0
LINE
  8
17DEG_15
  6
CONTINUOUS
 62
    7
 10
221.02659
 20
243.84272
 11
220.62628
 21
243.96871
  0
LINE
  8
17DEG_15
  6
CONTINUOUS
 62
    7
 10
220.62628
 20
243.96871
 11
220.18211
 21
244.1416
  0
LINE
  8
17DEG_15
  6
CONTINUOUS
 62
    7
 10
220.18211
 20
244.1416
 11
219.74693
 21
244.34559
  0
LINE
  8
17DEG_15
  6
CONTINUOUS
 62
    7
 10
219.74693
 20
244.34559
 11
219.32153
 21
244.57918
  0
LINE
  8
17DEG_15
  6
CONTINUOUS
 62
    7
 10
219.32153
 20
244.57918
 11
218.90705
 21
244.8404
  0
LINE
  8
17DEG_15
  6
CONTINUOUS
 62
    7
 10
218.90705
 20
244.8404
 11
218.50441
 21
245.12731
  0
LINE
  8
17DEG_15
  6
CONTINUOUS
 62
    7
 10
218.50441
 20
245.12731
 11
218.11441
 21
245.43839
  0
LINE
  8
17DEG_15
  6
CONTINUOUS
 62
    7
 10
218.11441
 20
245.43839
 11
217.73821
 21
245.7715
  0
LINE
  8
17DEG_15
  6
CONTINUOUS
 62
    7
 10
217.73821
 20
245.7715
 11
217.37666
 21
246.12503
  0
LINE
  8
17DEG_15
  6
CONTINUOUS
 62
    7
 10
217.37666
 20
246.12503
 11
217.03086
 21
246.49705
  0
LINE
  8
17DEG_15
  6
CONTINUOUS
 62
    7
 10
217.03086
 20
246.49705
 11
216.70159
 21
246.88576
  0
LINE
  8
17DEG_15
  6
CONTINUOUS
 62
    7
 10
216.70159
 20
246.88576
 11
216.38999
 21
247.28932
  0
LINE
  8
17DEG_15
  6
CONTINUOUS
 62
    7
 10
216.38999
 20
247.28932
 11
216.0968
 21
247.7059
  0
LINE
  8
17DEG_15
  6
CONTINUOUS
 62
    7
 10
216.0968
 20
247.7059
 11
215.82321
 21
248.13366
  0
LINE
  8
17DEG_15
  6
CONTINUOUS
 62
    7
 10
215.82321
 20
248.13366
 11
215.56999
 21
248.57093
  0
LINE
  8
17DEG_15
  6
CONTINUOUS
 62
    7
 10
215.56999
 20
248.57093
 11
215.33825
 21
249.01564
  0
LINE
  8
17DEG_15
  6
CONTINUOUS
 62
    7
 10
215.33825
 20
249.01564
 11
215.12891
 21
249.46613
  0
LINE
  8
17DEG_15
  6
CONTINUOUS
 62
    7
 10
215.12891
 20
249.46613
 11
214.95427
 21
249.89006
  0
LINE
  8
17DEG_15
  6
CONTINUOUS
 62
    7
 10
214.95427
 20
249.89006
 11
214.79929
 21
250.31737
  0
LINE
  8
17DEG_15
  6
CONTINUOUS
 62
    7
 10
214.79929
 20
250.31737
 11
214.66281
 21
250.74774
  0
LINE
  8
17DEG_15
  6
CONTINUOUS
 62
    7
 10
214.66281
 20
250.74774
 11
214.5443
 21
251.18107
  0
LINE
  8
17DEG_15
  6
CONTINUOUS
 62
    7
 10
214.5443
 20
251.18107
 11
214.44276
 21
251.61723
  0
LINE
  8
17DEG_15
  6
CONTINUOUS
 62
    7
 10
214.44276
 20
251.61723
 11
214.35741
 21
252.05614
  0
LINE
  8
17DEG_15
  6
CONTINUOUS
 62
    7
 10
214.35741
 20
252.05614
 11
214.28749
 21
252.49763
  0
LINE
  8
17DEG_15
  6
CONTINUOUS
 62
    7
 10
214.28749
 20
252.49763
 11
214.23206
 21
252.94156
  0
LINE
  8
17DEG_15
  6
CONTINUOUS
 62
    7
 10
214.23206
 20
252.94156
 11
214.16158
 21
253.83621
  0
LINE
  8
17DEG_15
  6
CONTINUOUS
 62
    7
 10
214.16158
 20
253.83621
 11
214.13946
 21
254.73886
  0
LINE
  8
17DEG_15
  6
CONTINUOUS
 62
    7
 10
214.13946
 20
254.73886
 11
214.15906
 21
255.6485
  0
LINE
  8
17DEG_15
  6
CONTINUOUS
 62
    7
 10
214.15906
 20
255.6485
 11
214.21379
 21
256.5642
  0
LINE
  8
17DEG_15
  6
CONTINUOUS
 62
    7
 10
214.21379
 20
256.5642
 11
214.29722
 21
257.4845
  0
LINE
  8
17DEG_15
  6
CONTINUOUS
 62
    7
 10
214.29722
 20
257.4845
 11
214.40257
 21
258.40858
  0
LINE
  8
17DEG_15
  6
CONTINUOUS
 62
    7
 10
214.40257
 20
258.40858
 11
214.65312
 21
260.2634
  0
LINE
  8
17DEG_15
  6
CONTINUOUS
 62
    7
 10
214.65312
 20
260.2634
 11
214.91268
 21
262.11975
  0
LINE
  8
17DEG_15
  6
CONTINUOUS
 62
    7
 10
214.91268
 20
262.11975
 11
215.02952
 21
263.04572
  0
LINE
  8
17DEG_15
  6
CONTINUOUS
 62
    7
 10
215.02952
 20
263.04572
 11
215.12891
 21
263.9687
  0
LINE
  8
17DEG_15
  6
CONTINUOUS
 62
    7
 10
215.12891
 20
263.9687
 11
215.22886
 21
265.23549
  0
LINE
  8
17DEG_15
  6
CONTINUOUS
 62
    7
 10
215.22886
 20
265.23549
 11
215.28884
 21
266.49557
  0
LINE
  8
17DEG_15
  6
CONTINUOUS
 62
    7
 10
215.28884
 20
266.49557
 11
215.31452
 21
267.74985
  0
LINE
  8
17DEG_15
  6
CONTINUOUS
 62
    7
 10
215.31452
 20
267.74985
 11
215.31172
 21
268.99936
  0
LINE
  8
17DEG_15
  6
CONTINUOUS
 62
    7
 10
215.31172
 20
268.99936
 11
215.28597
 21
270.24512
  0
LINE
  8
17DEG_15
  6
CONTINUOUS
 62
    7
 10
215.28597
 20
270.24512
 11
215.24313
 21
271.48784
  0
LINE
  8
17DEG_15
  6
CONTINUOUS
 62
    7
 10
215.24313
 20
271.48784
 11
215.12891
 21
273.96873
  0
LINE
  8
17DEG_15
  6
CONTINUOUS
 62
    7
 10
255.62624
 20
245.46874
 11
235.62623
 21
245.46874
  0
LINE
  8
17DEG_15
  6
CONTINUOUS
 62
    7
 10
235.62623
 20
245.46874
 11
235.62623
 21
243.46875
  0
LINE
  8
17DEG_15
  6
CONTINUOUS
 62
    7
 10
235.62623
 20
243.46875
 11
255.62624
 21
243.46875
  0
LINE
  8
17DEG_15
  6
CONTINUOUS
 62
    7
 10
255.62624
 20
243.46875
 11
255.62624
 21
245.46874
  0
LINE
  8
17DEG_15
  6
CONTINUOUS
 62
    7
 10
199.80368
 20
259.96866
 11
198.90952
 21
259.83211
  0
LINE
  8
17DEG_15
  6
CONTINUOUS
 62
    7
 10
198.90952
 20
259.83211
 11
198.01851
 21
259.70859
  0
LINE
  8
17DEG_15
  6
CONTINUOUS
 62
    7
 10
198.01851
 20
259.70859
 11
197.13391
 21
259.61103
  0
LINE
  8
17DEG_15
  6
CONTINUOUS
 62
    7
 10
197.13391
 20
259.61103
 11
196.25851
 21
259.5525
  0
LINE
  8
17DEG_15
  6
CONTINUOUS
 62
    7
 10
196.25851
 20
259.5525
 11
195.82534
 21
259.54193
  0
LINE
  8
17DEG_15
  6
CONTINUOUS
 62
    7
 10
195.82534
 20
259.54193
 11
195.39556
 21
259.54597
  0
LINE
  8
17DEG_15
  6
CONTINUOUS
 62
    7
 10
195.39556
 20
259.54597
 11
194.96985
 21
259.56636
  0
LINE
  8
17DEG_15
  6
CONTINUOUS
 62
    7
 10
194.96985
 20
259.56636
 11
194.54844
 21
259.60455
  0
LINE
  8
17DEG_15
  6
CONTINUOUS
 62
    7
 10
194.54844
 20
259.60455
 11
194.13165
 21
259.66226
  0
LINE
  8
17DEG_15
  6
CONTINUOUS
 62
    7
 10
194.13165
 20
259.66226
 11
193.71996
 21
259.74116
  0
LINE
  8
17DEG_15
  6
CONTINUOUS
 62
    7
 10
193.71996
 20
259.74116
 11
193.31371
 21
259.84268
  0
LINE
  8
17DEG_15
  6
CONTINUOUS
 62
    7
 10
193.31371
 20
259.84268
 11
192.9134
 21
259.96866
  0
LINE
  8
17DEG_15
  6
CONTINUOUS
 62
    7
 10
192.9134
 20
259.96866
 11
192.46921
 21
260.14155
  0
LINE
  8
17DEG_15
  6
CONTINUOUS
 62
    7
 10
192.46921
 20
260.14155
 11
192.03404
 21
260.34554
  0
LINE
  8
17DEG_15
  6
CONTINUOUS
 62
    7
 10
192.03404
 20
260.34554
 11
191.60864
 21
260.57913
  0
LINE
  8
17DEG_15
  6
CONTINUOUS
 62
    7
 10
191.60864
 20
260.57913
 11
191.19418
 21
260.84035
  0
LINE
  8
17DEG_15
  6
CONTINUOUS
 62
    7
 10
191.19418
 20
260.84035
 11
190.79151
 21
261.12726
  0
LINE
  8
17DEG_15
  6
CONTINUOUS
 62
    7
 10
190.79151
 20
261.12726
 11
190.40152
 21
261.43835
  0
LINE
  8
17DEG_15
  6
CONTINUOUS
 62
    7
 10
190.40152
 20
261.43835
 11
190.02533
 21
261.77145
  0
LINE
  8
17DEG_15
  6
CONTINUOUS
 62
    7
 10
190.02533
 20
261.77145
 11
189.66376
 21
262.12498
  0
LINE
  8
17DEG_15
  6
CONTINUOUS
 62
    7
 10
189.66376
 20
262.12498
 11
189.31799
 21
262.497
  0
LINE
  8
17DEG_15
  6
CONTINUOUS
 62
    7
 10
189.31799
 20
262.497
 11
188.9887
 21
262.88571
  0
LINE
  8
17DEG_15
  6
CONTINUOUS
 62
    7
 10
188.9887
 20
262.88571
 11
188.67712
 21
263.28927
  0
LINE
  8
17DEG_15
  6
CONTINUOUS
 62
    7
 10
188.67712
 20
263.28927
 11
188.38392
 21
263.70585
  0
LINE
  8
17DEG_15
  6
CONTINUOUS
 62
    7
 10
188.38392
 20
263.70585
 11
188.11033
 21
264.13361
  0
LINE
  8
17DEG_15
  6
CONTINUOUS
 62
    7
 10
188.11033
 20
264.13361
 11
187.8571
 21
264.57088
  0
LINE
  8
17DEG_15
  6
CONTINUOUS
 62
    7
 10
187.8571
 20
264.57088
 11
187.62536
 21
265.01559
  0
LINE
  8
17DEG_15
  6
CONTINUOUS
 62
    7
 10
187.62536
 20
265.01559
 11
187.41602
 21
265.46609
  0
LINE
  8
17DEG_15
  6
CONTINUOUS
 62
    7
 10
187.41602
 20
265.46609
 11
187.24136
 21
265.89002
  0
LINE
  8
17DEG_15
  6
CONTINUOUS
 62
    7
 10
187.24136
 20
265.89002
 11
187.08641
 21
266.31732
  0
LINE
  8
17DEG_15
  6
CONTINUOUS
 62
    7
 10
187.08641
 20
266.31732
 11
186.94993
 21
266.74771
  0
LINE
  8
17DEG_15
  6
CONTINUOUS
 62
    7
 10
186.94993
 20
266.74771
 11
186.8314
 21
267.18102
  0
LINE
  8
17DEG_15
  6
CONTINUOUS
 62
    7
 10
186.8314
 20
267.18102
 11
186.72988
 21
267.61718
  0
LINE
  8
17DEG_15
  6
CONTINUOUS
 62
    7
 10
186.72988
 20
267.61718
 11
186.64452
 21
268.05609
  0
LINE
  8
17DEG_15
  6
CONTINUOUS
 62
    7
 10
186.64452
 20
268.05609
 11
186.5746
 21
268.49758
  0
LINE
  8
17DEG_15
  6
CONTINUOUS
 62
    7
 10
186.5746
 20
268.49758
 11
186.51917
 21
268.94151
  0
LINE
  8
17DEG_15
  6
CONTINUOUS
 62
    7
 10
186.51917
 20
268.94151
 11
186.44869
 21
269.83616
  0
LINE
  8
17DEG_15
  6
CONTINUOUS
 62
    7
 10
186.44869
 20
269.83616
 11
186.42657
 21
270.73881
  0
LINE
  8
17DEG_15
  6
CONTINUOUS
 62
    7
 10
186.42657
 20
270.73881
 11
186.44617
 21
271.64845
  0
LINE
  8
17DEG_15
  6
CONTINUOUS
 62
    7
 10
186.44617
 20
271.64845
 11
186.5009
 21
272.56415
  0
LINE
  8
17DEG_15
  6
CONTINUOUS
 62
    7
 10
186.5009
 20
272.56415
 11
186.58433
 21
273.48443
  0
LINE
  8
17DEG_15
  6
CONTINUOUS
 62
    7
 10
186.58433
 20
273.48443
 11
186.68967
 21
274.40853
  0
LINE
  8
17DEG_15
  6
CONTINUOUS
 62
    7
 10
186.68967
 20
274.40853
 11
186.94023
 21
276.26336
  0
LINE
  8
17DEG_15
  6
CONTINUOUS
 62
    7
 10
186.94023
 20
276.26336
 11
187.19979
 21
278.1197
  0
LINE
  8
17DEG_15
  6
CONTINUOUS
 62
    7
 10
187.19979
 20
278.1197
 11
187.31664
 21
279.04567
  0
LINE
  8
17DEG_15
  6
CONTINUOUS
 62
    7
 10
187.31664
 20
279.04567
 11
187.41602
 21
279.96865
  0
LINE
  8
17DEG_15
  6
CONTINUOUS
 62
    7
 10
187.41602
 20
279.96865
 11
187.51597
 21
281.23544
  0
LINE
  8
17DEG_15
  6
CONTINUOUS
 62
    7
 10
187.51597
 20
281.23544
 11
187.57595
 21
282.49552
  0
LINE
  8
17DEG_15
  6
CONTINUOUS
 62
    7
 10
187.57595
 20
282.49552
 11
187.60164
 21
283.7498
  0
LINE
  8
17DEG_15
  6
CONTINUOUS
 62
    7
 10
187.60164
 20
283.7498
 11
187.59884
 21
284.99931
  0
LINE
  8
17DEG_15
  6
CONTINUOUS
 62
    7
 10
187.59884
 20
284.99931
 11
187.57308
 21
286.24507
  0
LINE
  8
17DEG_15
  6
CONTINUOUS
 62
    7
 10
187.57308
 20
286.24507
 11
187.53025
 21
287.48779
  0
LINE
  8
17DEG_15
  6
CONTINUOUS
 62
    7
 10
187.53025
 20
287.48779
 11
187.41602
 21
289.96868
  0
LINE
  8
17DEG_15
  6
CONTINUOUS
 62
    7
 10
227.91338
 20
261.46869
 11
207.91333
 21
261.46869
  0
LINE
  8
17DEG_15
  6
CONTINUOUS
 62
    7
 10
207.91333
 20
261.46869
 11
207.91333
 21
259.4687
  0
LINE
  8
17DEG_15
  6
CONTINUOUS
 62
    7
 10
207.91333
 20
259.4687
 11
227.91338
 21
259.4687
  0
LINE
  8
17DEG_15
  6
CONTINUOUS
 62
    7
 10
227.91338
 20
259.4687
 11
227.91338
 21
261.46869
  0
LINE
  8
17DEG_15
  6
CONTINUOUS
 62
    7
 10
172.09079
 20
275.96872
 11
171.19664
 21
275.83216
  0
LINE
  8
17DEG_15
  6
CONTINUOUS
 62
    7
 10
171.19664
 20
275.83216
 11
170.30564
 21
275.70865
  0
LINE
  8
17DEG_15
  6
CONTINUOUS
 62
    7
 10
170.30564
 20
275.70865
 11
169.42102
 21
275.61107
  0
LINE
  8
17DEG_15
  6
CONTINUOUS
 62
    7
 10
169.42102
 20
275.61107
 11
168.54564
 21
275.55254
  0
LINE
  8
17DEG_15
  6
CONTINUOUS
 62
    7
 10
168.54564
 20
275.55254
 11
168.11245
 21
275.542
  0
LINE
  8
17DEG_15
  6
CONTINUOUS
 62
    7
 10
168.11245
 20
275.542
 11
167.68268
 21
275.54603
  0
LINE
  8
17DEG_15
  6
CONTINUOUS
 62
    7
 10
167.68268
 20
275.54603
 11
167.25696
 21
275.56641
  0
LINE
  8
17DEG_15
  6
CONTINUOUS
 62
    7
 10
167.25696
 20
275.56641
 11
166.83555
 21
275.60461
  0
LINE
  8
17DEG_15
  6
CONTINUOUS
 62
    7
 10
166.83555
 20
275.60461
 11
166.41876
 21
275.66232
  0
LINE
  8
17DEG_15
  6
CONTINUOUS
 62
    7
 10
166.41876
 20
275.66232
 11
166.00708
 21
275.74121
  0
LINE
  8
17DEG_15
  6
CONTINUOUS
 62
    7
 10
166.00708
 20
275.74121
 11
165.60082
 21
275.84273
  0
LINE
  8
17DEG_15
  6
CONTINUOUS
 62
    7
 10
165.60082
 20
275.84273
 11
165.20051
 21
275.96872
  0
LINE
  8
17DEG_15
  6
CONTINUOUS
 62
    7
 10
165.20051
 20
275.96872
 11
164.75632
 21
276.14163
  0
LINE
  8
17DEG_15
  6
CONTINUOUS
 62
    7
 10
164.75632
 20
276.14163
 11
164.32116
 21
276.34559
  0
LINE
  8
17DEG_15
  6
CONTINUOUS
 62
    7
 10
164.32116
 20
276.34559
 11
163.89576
 21
276.57919
  0
LINE
  8
17DEG_15
  6
CONTINUOUS
 62
    7
 10
163.89576
 20
276.57919
 11
163.48128
 21
276.84039
  0
LINE
  8
17DEG_15
  6
CONTINUOUS
 62
    7
 10
163.48128
 20
276.84039
 11
163.07862
 21
277.12731
  0
LINE
  8
17DEG_15
  6
CONTINUOUS
 62
    7
 10
163.07862
 20
277.12731
 11
162.68864
 21
277.4384
  0
LINE
  8
17DEG_15
  6
CONTINUOUS
 62
    7
 10
162.68864
 20
277.4384
 11
162.31244
 21
277.7715
  0
LINE
  8
17DEG_15
  6
CONTINUOUS
 62
    7
 10
162.31244
 20
277.7715
 11
161.95087
 21
278.12506
  0
LINE
  8
17DEG_15
  6
CONTINUOUS
 62
    7
 10
161.95087
 20
278.12506
 11
161.60508
 21
278.49706
  0
LINE
  8
17DEG_15
  6
CONTINUOUS
 62
    7
 10
161.60508
 20
278.49706
 11
161.27582
 21
278.88576
  0
LINE
  8
17DEG_15
  6
CONTINUOUS
 62
    7
 10
161.27582
 20
278.88576
 11
160.96422
 21
279.28933
  0
LINE
  8
17DEG_15
  6
CONTINUOUS
 62
    7
 10
160.96422
 20
279.28933
 11
160.67103
 21
279.70591
  0
LINE
  8
17DEG_15
  6
CONTINUOUS
 62
    7
 10
160.67103
 20
279.70591
 11
160.39744
 21
280.13367
  0
LINE
  8
17DEG_15
  6
CONTINUOUS
 62
    7
 10
160.39744
 20
280.13367
 11
160.14422
 21
280.57095
  0
LINE
  8
17DEG_15
  6
CONTINUOUS
 62
    7
 10
160.14422
 20
280.57095
 11
159.91248
 21
281.01565
  0
LINE
  8
17DEG_15
  6
CONTINUOUS
 62
    7
 10
159.91248
 20
281.01565
 11
159.70314
 21
281.46614
  0
LINE
  8
17DEG_15
  6
CONTINUOUS
 62
    7
 10
159.70314
 20
281.46614
 11
159.52848
 21
281.89007
  0
LINE
  8
17DEG_15
  6
CONTINUOUS
 62
    7
 10
159.52848
 20
281.89007
 11
159.37352
 21
282.31736
  0
LINE
  8
17DEG_15
  6
CONTINUOUS
 62
    7
 10
159.37352
 20
282.31736
 11
159.23704
 21
282.74777
  0
LINE
  8
17DEG_15
  6
CONTINUOUS
 62
    7
 10
159.23704
 20
282.74777
 11
159.11851
 21
283.18107
  0
LINE
  8
17DEG_15
  6
CONTINUOUS
 62
    7
 10
159.11851
 20
283.18107
 11
159.01699
 21
283.61724
  0
LINE
  8
17DEG_15
  6
CONTINUOUS
 62
    7
 10
159.01699
 20
283.61724
 11
158.93164
 21
284.05613
  0
LINE
  8
17DEG_15
  6
CONTINUOUS
 62
    7
 10
158.93164
 20
284.05613
 11
158.86173
 21
284.49764
  0
LINE
  8
17DEG_15
  6
CONTINUOUS
 62
    7
 10
158.86173
 20
284.49764
 11
158.80629
 21
284.94159
  0
LINE
  8
17DEG_15
  6
CONTINUOUS
 62
    7
 10
158.80629
 20
284.94159
 11
158.7358
 21
285.83622
  0
LINE
  8
17DEG_15
  6
CONTINUOUS
 62
    7
 10
158.7358
 20
285.83622
 11
158.71369
 21
286.73887
  0
LINE
  8
17DEG_15
  6
CONTINUOUS
 62
    7
 10
158.71369
 20
286.73887
 11
158.73329
 21
287.64851
  0
LINE
  8
17DEG_15
  6
CONTINUOUS
 62
    7
 10
158.73329
 20
287.64851
 11
158.78804
 21
288.56419
  0
LINE
  8
17DEG_15
  6
CONTINUOUS
 62
    7
 10
158.78804
 20
288.56419
 11
158.87145
 21
289.48449
  0
LINE
  8
17DEG_15
  6
CONTINUOUS
 62
    7
 10
158.87145
 20
289.48449
 11
158.97678
 21
290.40859
  0
LINE
  8
17DEG_15
  6
CONTINUOUS
 62
    7
 10
158.97678
 20
290.40859
 11
159.22735
 21
292.26341
  0
LINE
  8
17DEG_15
  6
CONTINUOUS
 62
    7
 10
159.22735
 20
292.26341
 11
159.4869
 21
294.11976
  0
LINE
  8
17DEG_15
  6
CONTINUOUS
 62
    7
 10
159.4869
 20
294.11976
 11
159.60377
 21
295.04573
  0
LINE
  8
17DEG_15
  6
CONTINUOUS
 62
    7
 10
159.60377
 20
295.04573
 11
159.70314
 21
295.96869
  0
LINE
  8
17DEG_15
  6
CONTINUOUS
 62
    7
 10
159.70314
 20
295.96869
 11
159.80308
 21
297.23551
  0
LINE
  8
17DEG_15
  6
CONTINUOUS
 62
    7
 10
159.80308
 20
297.23551
 11
159.86307
 21
298.49558
  0
LINE
  8
17DEG_15
  6
CONTINUOUS
 62
    7
 10
159.86307
 20
298.49558
 11
159.88875
 21
299.74984
  0
LINE
  8
17DEG_15
  6
CONTINUOUS
 62
    7
 10
159.88875
 20
299.74984
 11
159.88595
 21
300.99937
  0
LINE
  8
17DEG_15
  6
CONTINUOUS
 62
    7
 10
159.88595
 20
300.99937
 11
159.8602
 21
302.24512
  0
LINE
  8
17DEG_15
  6
CONTINUOUS
 62
    7
 10
159.8602
 20
302.24512
 11
159.81736
 21
303.48783
  0
LINE
  8
17DEG_15
  6
CONTINUOUS
 62
    7
 10
159.81736
 20
303.48783
 11
159.70314
 21
305.96874
  0
LINE
  8
17DEG_15
  6
CONTINUOUS
 62
    7
 10
200.20047
 20
277.46873
 11
180.20045
 21
277.46873
  0
LINE
  8
17DEG_15
  6
CONTINUOUS
 62
    7
 10
180.20045
 20
277.46873
 11
180.20045
 21
275.46876
  0
LINE
  8
17DEG_15
  6
CONTINUOUS
 62
    7
 10
180.20045
 20
275.46876
 11
200.20047
 21
275.46876
  0
LINE
  8
17DEG_15
  6
CONTINUOUS
 62
    7
 10
200.20047
 20
275.46876
 11
200.20047
 21
277.46873
  0
LINE
  8
17DEG_15
  6
CONTINUOUS
 62
    7
 10
254.79634
 20
228.46866
 11
253.9022
 21
228.33214
  0
LINE
  8
17DEG_15
  6
CONTINUOUS
 62
    7
 10
253.9022
 20
228.33214
 11
253.01117
 21
228.20863
  0
LINE
  8
17DEG_15
  6
CONTINUOUS
 62
    7
 10
253.01117
 20
228.20863
 11
252.12656
 21
228.11105
  0
LINE
  8
17DEG_15
  6
CONTINUOUS
 62
    7
 10
252.12656
 20
228.11105
 11
251.25118
 21
228.05252
  0
LINE
  8
17DEG_15
  6
CONTINUOUS
 62
    7
 10
251.25118
 20
228.05252
 11
250.81799
 21
228.04198
  0
LINE
  8
17DEG_15
  6
CONTINUOUS
 62
    7
 10
250.81799
 20
228.04198
 11
250.38822
 21
228.04601
  0
LINE
  8
17DEG_15
  6
CONTINUOUS
 62
    7
 10
250.38822
 20
228.04601
 11
249.96252
 21
228.06639
  0
LINE
  8
17DEG_15
  6
CONTINUOUS
 62
    7
 10
249.96252
 20
228.06639
 11
249.54109
 21
228.10459
  0
LINE
  8
17DEG_15
  6
CONTINUOUS
 62
    7
 10
249.54109
 20
228.10459
 11
249.1243
 21
228.1623
  0
LINE
  8
17DEG_15
  6
CONTINUOUS
 62
    7
 10
249.1243
 20
228.1623
 11
248.71264
 21
228.24117
  0
LINE
  8
17DEG_15
  6
CONTINUOUS
 62
    7
 10
248.71264
 20
228.24117
 11
248.30638
 21
228.34271
  0
LINE
  8
17DEG_15
  6
CONTINUOUS
 62
    7
 10
248.30638
 20
228.34271
 11
247.90607
 21
228.46866
  0
LINE
  8
17DEG_15
  6
CONTINUOUS
 62
    7
 10
247.90607
 20
228.46866
 11
247.46186
 21
228.64161
  0
LINE
  8
17DEG_15
  6
CONTINUOUS
 62
    7
 10
247.46186
 20
228.64161
 11
247.0267
 21
228.84557
  0
LINE
  8
17DEG_15
  6
CONTINUOUS
 62
    7
 10
247.0267
 20
228.84557
 11
246.6013
 21
229.07917
  0
LINE
  8
17DEG_15
  6
CONTINUOUS
 62
    7
 10
246.6013
 20
229.07917
 11
246.18682
 21
229.34037
  0
LINE
  8
17DEG_15
  6
CONTINUOUS
 62
    7
 10
246.18682
 20
229.34037
 11
245.78416
 21
229.62729
  0
LINE
  8
17DEG_15
  6
CONTINUOUS
 62
    7
 10
245.78416
 20
229.62729
 11
245.3942
 21
229.93838
  0
LINE
  8
17DEG_15
  6
CONTINUOUS
 62
    7
 10
245.3942
 20
229.93838
 11
245.01798
 21
230.2715
  0
LINE
  8
17DEG_15
  6
CONTINUOUS
 62
    7
 10
245.01798
 20
230.2715
 11
244.65641
 21
230.62504
  0
LINE
  8
17DEG_15
  6
CONTINUOUS
 62
    7
 10
244.65641
 20
230.62504
 11
244.31063
 21
230.99705
  0
LINE
  8
17DEG_15
  6
CONTINUOUS
 62
    7
 10
244.31063
 20
230.99705
 11
243.98138
 21
231.38574
  0
LINE
  8
17DEG_15
  6
CONTINUOUS
 62
    7
 10
243.98138
 20
231.38574
 11
243.66976
 21
231.78931
  0
LINE
  8
17DEG_15
  6
CONTINUOUS
 62
    7
 10
243.66976
 20
231.78931
 11
243.37659
 21
232.20589
  0
LINE
  8
17DEG_15
  6
CONTINUOUS
 62
    7
 10
243.37659
 20
232.20589
 11
243.103
 21
232.63365
  0
LINE
  8
17DEG_15
  6
CONTINUOUS
 62
    7
 10
243.103
 20
232.63365
 11
242.84978
 21
233.07093
  0
LINE
  8
17DEG_15
  6
CONTINUOUS
 62
    7
 10
242.84978
 20
233.07093
 11
242.61802
 21
233.51563
  0
LINE
  8
17DEG_15
  6
CONTINUOUS
 62
    7
 10
242.61802
 20
233.51563
 11
242.4087
 21
233.96612
  0
LINE
  8
17DEG_15
  6
CONTINUOUS
 62
    7
 10
242.4087
 20
233.96612
 11
242.23402
 21
234.39005
  0
LINE
  8
17DEG_15
  6
CONTINUOUS
 62
    7
 10
242.23402
 20
234.39005
 11
242.07906
 21
234.81734
  0
LINE
  8
17DEG_15
  6
CONTINUOUS
 62
    7
 10
242.07906
 20
234.81734
 11
241.9426
 21
235.24775
  0
LINE
  8
17DEG_15
  6
CONTINUOUS
 62
    7
 10
241.9426
 20
235.24775
 11
241.82405
 21
235.68107
  0
LINE
  8
17DEG_15
  6
CONTINUOUS
 62
    7
 10
241.82405
 20
235.68107
 11
241.72253
 21
236.11722
  0
LINE
  8
17DEG_15
  6
CONTINUOUS
 62
    7
 10
241.72253
 20
236.11722
 11
241.63718
 21
236.55611
  0
LINE
  8
17DEG_15
  6
CONTINUOUS
 62
    7
 10
241.63718
 20
236.55611
 11
241.56728
 21
236.99762
  0
LINE
  8
17DEG_15
  6
CONTINUOUS
 62
    7
 10
241.56728
 20
236.99762
 11
241.51184
 21
237.44157
  0
LINE
  8
17DEG_15
  6
CONTINUOUS
 62
    7
 10
241.51184
 20
237.44157
 11
241.44135
 21
238.3362
  0
LINE
  8
17DEG_15
  6
CONTINUOUS
 62
    7
 10
241.44135
 20
238.3362
 11
241.41923
 21
239.23886
  0
LINE
  8
17DEG_15
  6
CONTINUOUS
 62
    7
 10
241.41923
 20
239.23886
 11
241.43883
 21
240.14849
  0
LINE
  8
17DEG_15
  6
CONTINUOUS
 62
    7
 10
241.43883
 20
240.14849
 11
241.49356
 21
241.06417
  0
LINE
  8
17DEG_15
  6
CONTINUOUS
 62
    7
 10
241.49356
 20
241.06417
 11
241.577
 21
241.98447
  0
LINE
  8
17DEG_15
  6
CONTINUOUS
 62
    7
 10
241.577
 20
241.98447
 11
241.68232
 21
242.90857
  0
LINE
  8
17DEG_15
  6
CONTINUOUS
 62
    7
 10
241.68232
 20
242.90857
 11
241.93289
 21
244.76336
  0
LINE
  8
17DEG_15
  6
CONTINUOUS
 62
    7
 10
241.93289
 20
244.76336
 11
242.19245
 21
246.61972
  0
LINE
  8
17DEG_15
  6
CONTINUOUS
 62
    7
 10
242.19245
 20
246.61972
 11
242.30929
 21
247.54569
  0
LINE
  8
17DEG_15
  6
CONTINUOUS
 62
    7
 10
242.30929
 20
247.54569
 11
242.4087
 21
248.46867
  0
LINE
  8
17DEG_15
  6
CONTINUOUS
 62
    7
 10
242.4087
 20
248.46867
 11
242.50864
 21
249.73547
  0
LINE
  8
17DEG_15
  6
CONTINUOUS
 62
    7
 10
242.50864
 20
249.73547
 11
242.56861
 21
250.99558
  0
LINE
  8
17DEG_15
  6
CONTINUOUS
 62
    7
 10
242.56861
 20
250.99558
 11
242.59431
 21
252.24982
  0
LINE
  8
17DEG_15
  6
CONTINUOUS
 62
    7
 10
242.59431
 20
252.24982
 11
242.59149
 21
253.49935
  0
LINE
  8
17DEG_15
  6
CONTINUOUS
 62
    7
 10
242.59149
 20
253.49935
 11
242.56576
 21
254.74512
  0
LINE
  8
17DEG_15
  6
CONTINUOUS
 62
    7
 10
242.56576
 20
254.74512
 11
242.52292
 21
255.98781
  0
LINE
  8
17DEG_15
  6
CONTINUOUS
 62
    7
 10
242.52292
 20
255.98781
 11
242.4087
 21
258.46874
  0
LINE
  8
17DEG_15
  6
CONTINUOUS
 62
    7
 10
282.90601
 20
229.96871
 11
262.90599
 21
229.96871
  0
LINE
  8
17DEG_15
  6
CONTINUOUS
 62
    7
 10
262.90599
 20
229.96871
 11
262.90599
 21
227.96874
  0
LINE
  8
17DEG_15
  6
CONTINUOUS
 62
    7
 10
262.90599
 20
227.96874
 11
282.90601
 21
227.96874
  0
LINE
  8
17DEG_15
  6
CONTINUOUS
 62
    7
 10
282.90601
 20
227.96874
 11
282.90601
 21
229.96871
  0
LINE
  8
ADD_LINE
  6
DOT
 62
    7
 10
114.85879
 20
302.28922
 11
408.18942
 21
132.93471
  0
LINE
  8
SHIELD_P
  6
DASHED1
 62
    5
 10
370.12651
 20
117.52868
 11
373.13248
 21
117.52868
  0
LINE
  8
SHIELD_P
  6
DASHED1
 62
    5
 10
373.13248
 20
117.52868
 11
373.13248
 21
112.07169
  0
LINE
  8
SHIELD_P
  6
DASHED1
 62
    5
 10
370.12651
 20
94.968685
 11
373.32657
 21
94.968685
  0
LINE
  8
SHIELD_P
  6
DASHED1
 62
    5
 10
370.12651
 20
121.96868
 11
382.92655
 21
121.96868
  0
LINE
  8
SHIELD_P
  6
DASHED1
 62
    5
 10
370.12651
 20
121.96868
 11
370.12651
 21
117.52868
  0
LINE
  8
SHIELD_P
  6
DASHED1
 62
    5
 10
382.92655
 20
121.96868
 11
382.92655
 21
117.52868
  0
LINE
  8
SHIELD_P
  6
DASHED1
 62
    5
 10
379.72657
 20
117.52868
 11
379.72657
 21
121.96868
  0
LINE
  8
SHIELD_P
  6
DASHED1
 62
    5
 10
373.13248
 20
117.52868
 11
373.13248
 21
121.96868
  0
LINE
  8
SHIELD_P
  6
DASHED1
 62
    5
 10
379.72657
 20
94.968685
 11
379.72657
 21
89.968687
  0
LINE
  8
SHIELD_P
  6
DASHED1
 62
    5
 10
373.21287
 20
95.06913
 11
373.21287
 21
89.968687
  0
LINE
  8
SHIELD_P
  6
DASHED1
 62
    5
 10
370.12651
 20
94.968685
 11
370.12651
 21
89.968687
  0
LINE
  8
ADD_LINE
  6
DOT
 62
    7
 10
457.20231
 20
130.46868
 11
363.32662
 21
130.46868
  0
LINE
  8
INNER_SH
  6
CONTINUOUS
 62
    7
 10
365.83664
 20
134.29311
 11
365.83664
 21
88.468729
  0
LINE
  8
BUL
  6
CENTER1
 62
    7
 10
353.03223
 20
128.46869
 11
379.38113
 21
128.46869
  0
LINE
  8
FEEDTHRO
  6
CONTINUOUS
 62
    5
 10
382.46073
 20
130.46868
 11
379.57399
 21
125.4687
  0
LINE
  8
BUL
  6
CONTINUOUS
 62
    7
 10
358.83665
 20
133.96868
 11
365.83664
 21
133.96868
  0
LINE
  8
ADD_LINE
  6
DOT
 62
    7
 10
585.83302
 20
4.9687211
 11
23.958278
 21
329.36728
  0
LINE
  8
FEEDTHRO
  6
DASHED1
 62
    7
 10
100.8588
 20
284.96873
 11
362.39855
 21
133.96867
  0
LINE
  8
FEEDTHRO
  6
CONTINUOUS
 62
    5
 10
365.83664
 20
125.4687
 11
366.99466
 21
125.4687
  0
LINE
  8
FEEDTHRO
  6
CONTINUOUS
 62
    5
 10
366.99466
 20
125.4687
 11
379.57399
 21
125.4687
  0
LINE
  8
17DEG_15
  6
CONTINUOUS
 62
    5
 10
394.06618
 20
156.07924
 11
411.06615
 21
156.07924
  0
LINE
  8
FEEDTHRO
  6
CONTINUOUS
 62
    5
 10
325.06614
 20
162.71872
 11
325.06614
 21
157.83195
  0
LINE
  8
FEEDTHRO
  6
CONTINUOUS
 62
    5
 10
316.60202
 20
162.71872
 11
325.06614
 21
162.71872
  0
LINE
  8
BUL
  6
CONTINUOUS
 62
    7
 10
121.03826
 20
295.96869
 11
121.03826
 21
290.96868
  0
LINE
  8
CATHODE_
  6
CONTINUOUS
 62
    5
 10
104.46656
 20
290.96868
 11
382.46073
 21
130.46868
  0
LINE
  8
CATHODE_
  6
CONTINUOUS
 62
    5
 10
101.96656
 20
286.63853
 11
365.83664
 21
134.29309
  0
LINE
  8
CATHODE_
  6
CONTINUOUS
 62
    5
 10
104.46656
 20
290.96868
 11
101.96656
 21
286.63853
  0
LINE
  8
FEEDTHRO
  6
CONTINUOUS
 62
    5
 10
186.06901
 20
242.96872
 11
186.06901
 21
238.08196
  0
LINE
  8
FEEDTHRO
  6
CONTINUOUS
 62
    5
 10
177.6049
 20
242.96872
 11
186.06901
 21
242.96872
  0
LINE
  8
CONE_DIM
  6
CONTINUOUS
 62
    7
 10
263.21267
 20
248.96866
 11
263.21267
 21
240.96869
  0
LINE
  8
17DEG_15
  6
CONTINUOUS
 62
    5
 10
396.74365
 20
163.66867
 11
425.98759
 21
163.66867
  0
LINE
  8
TF
  6
CONTINUOUS
 62
    4
 10
327.9863
 20
4.9687211
 11
327.9863
 21
133.96868
  0
LINE
  8
TF
  6
CONTINUOUS
 62
    4
 10
358.83305
 20
4.9687211
 11
326.58629
 21
4.9687211
  0
LINE
  8
TF
  6
CONTINUOUS
 62
    4
 10
358.83305
 20
133.96868
 11
326.58629
 21
133.96868
  0
LINE
  8
TF
  6
CONTINUOUS
 62
    4
 10
327.9863
 20
4.9687211
 11
327.46865
 21
6.9005726
  0
LINE
  8
TF
  6
CONTINUOUS
 62
    4
 10
327.9863
 20
4.9687211
 11
328.50395
 21
6.9005726
  0
LINE
  8
TF
  6
CONTINUOUS
 62
    4
 10
327.9863
 20
133.96868
 11
327.46865
 21
132.03683
  0
LINE
  8
TF
  6
CONTINUOUS
 62
    4
 10
327.9863
 20
133.96868
 11
328.50395
 21
132.03683
  0
LINE
  8
TF
  6
CONTINUOUS
 62
    4
 10
335.83881
 20
4.9687211
 11
335.83881
 21
128.46869
  0
LINE
  8
TF
  6
CONTINUOUS
 62
    4
 10
358.83305
 20
4.9687211
 11
334.4388
 21
4.9687211
  0
LINE
  8
TF
  6
CONTINUOUS
 62
    4
 10
358.83305
 20
128.46869
 11
334.4388
 21
128.46869
  0
LINE
  8
TF
  6
CONTINUOUS
 62
    4
 10
335.83881
 20
4.9687211
 11
335.32116
 21
6.9005726
  0
LINE
  8
TF
  6
CONTINUOUS
 62
    4
 10
335.83881
 20
4.9687211
 11
336.35645
 21
6.9005726
  0
LINE
  8
TF
  6
CONTINUOUS
 62
    4
 10
335.83881
 20
128.46869
 11
335.32116
 21
126.53685
  0
LINE
  8
TF
  6
CONTINUOUS
 62
    4
 10
335.83881
 20
128.46869
 11
336.35645
 21
126.53685
  0
LINE
  8
TF
  6
CONTINUOUS
 62
    4
 10
343.2551
 20
4.9687211
 11
343.2551
 21
125.4687
  0
LINE
  8
TF
  6
CONTINUOUS
 62
    4
 10
358.83305
 20
4.9687211
 11
341.85509
 21
4.9687211
  0
LINE
  8
TF
  6
CONTINUOUS
 62
    4
 10
358.83305
 20
125.4687
 11
341.85509
 21
125.4687
  0
LINE
  8
TF
  6
CONTINUOUS
 62
    4
 10
343.2551
 20
4.9687211
 11
342.73745
 21
6.9005726
  0
LINE
  8
TF
  6
CONTINUOUS
 62
    4
 10
343.2551
 20
4.9687211
 11
343.77275
 21
6.9005726
  0
LINE
  8
TF
  6
CONTINUOUS
 62
    4
 10
343.2551
 20
125.4687
 11
342.73745
 21
123.53684
  0
LINE
  8
TF
  6
CONTINUOUS
 62
    4
 10
343.2551
 20
125.4687
 11
343.77275
 21
123.53684
  0
LINE
  8
TF
  6
CONTINUOUS
 62
    4
 10
365.83664
 20
125.4687
 11
349.2346
 21
125.4687
  0
LINE
  8
TF
  6
CONTINUOUS
 62
    4
 10
370.20368
 20
141.85707
 11
384.32779
 21
133.70251
  0
LINE
  8
TF
  6
CONTINUOUS
 62
    4
 10
365.83664
 20
134.29311
 11
370.90372
 21
143.0695
  0
LINE
  8
TF
  6
CONTINUOUS
 62
    4
 10
379.96075
 20
126.13856
 11
385.02776
 21
134.91495
  0
LINE
  8
TF
  6
CONTINUOUS
 62
    4
 10
370.20368
 20
141.85707
 11
372.13554
 21
141.33942
  0
LINE
  8
TF
  6
CONTINUOUS
 62
    4
 10
370.20368
 20
141.85707
 11
371.6179
 21
140.44285
  0
LINE
  8
TF
  6
CONTINUOUS
 62
    4
 10
384.32779
 20
133.70251
 11
382.9136
 21
135.11672
  0
LINE
  8
TF
  6
CONTINUOUS
 62
    4
 10
384.32779
 20
133.70251
 11
382.39592
 21
134.22015
  0
LINE
  8
TF
  6
CONTINUOUS
 62
    4
 10
97.375619
 20
278.68678
 11
176.47804
 21
233.01697
  0
LINE
  8
TF
  6
CONTINUOUS
 62
    4
 10
101.96657
 20
286.63859
 11
96.675613
 21
277.47436
  0
LINE
  8
TF
  6
CONTINUOUS
 62
    4
 10
181.06901
 20
240.96877
 11
175.77805
 21
231.80455
  0
LINE
  8
TF
  6
CONTINUOUS
 62
    4
 10
97.375619
 20
278.68678
 11
99.30746
 21
278.16913
  0
LINE
  8
TF
  6
CONTINUOUS
 62
    4
 10
97.375619
 20
278.68678
 11
98.789822
 21
277.27256
  0
LINE
  8
TF
  6
CONTINUOUS
 62
    4
 10
176.47804
 20
233.01697
 11
175.06382
 21
234.43117
  0
LINE
  8
TF
  6
CONTINUOUS
 62
    4
 10
176.47804
 20
233.01697
 11
174.54619
 21
233.53461
  0
LINE
  8
TF
  6
CONTINUOUS
 62
    4
 10
176.47806
 20
233.01697
 11
315.47522
 21
152.76692
  0
LINE
  8
TF
  6
CONTINUOUS
 62
    4
 10
320.06615
 20
160.71871
 11
314.77518
 21
151.5545
  0
LINE
  8
TF
  6
CONTINUOUS
 62
    4
 10
176.47806
 20
233.01697
 11
178.40991
 21
232.49932
  0
LINE
  8
TF
  6
CONTINUOUS
 62
    4
 10
176.47806
 20
233.01697
 11
177.89228
 21
231.60277
  0
LINE
  8
TF
  6
CONTINUOUS
 62
    4
 10
315.47522
 20
152.76692
 11
314.06096
 21
154.18115
  0
LINE
  8
TF
  6
CONTINUOUS
 62
    4
 10
315.47522
 20
152.76692
 11
313.54331
 21
153.28457
  0
LINE
  8
TF
  6
CONTINUOUS
 62
    4
 10
315.47522
 20
152.76692
 11
361.24568
 21
126.34132
  0
LINE
  8
TF
  6
CONTINUOUS
 62
    4
 10
365.83664
 20
134.29311
 11
360.54567
 21
125.12888
  0
LINE
  8
TF
  6
CONTINUOUS
 62
    4
 10
315.47522
 20
152.76692
 11
317.40705
 21
152.2493
  0
LINE
  8
TF
  6
CONTINUOUS
 62
    4
 10
315.47522
 20
152.76692
 11
316.8894
 21
151.3527
  0
LINE
  8
TF
  6
CONTINUOUS
 62
    4
 10
361.24568
 20
126.34132
 11
359.83146
 21
127.75554
  0
LINE
  8
TF
  6
CONTINUOUS
 62
    4
 10
361.24568
 20
126.34132
 11
359.31381
 21
126.85896
  0
LINE
  8
TF
  6
CONTINUOUS
 62
    4
 10
350.00953
 20
125.4687
 11
350.00953
 21
134.29311
  0
LINE
  8
TF
  6
CONTINUOUS
 62
    4
 10
365.83664
 20
125.4687
 11
348.60952
 21
125.4687
  0
LINE
  8
TF
  6
CONTINUOUS
 62
    4
 10
365.83664
 20
134.29311
 11
348.60952
 21
134.29311
  0
LINE
  8
TF
  6
CONTINUOUS
 62
    4
 10
350.00953
 20
125.4687
 11
349.49189
 21
127.40054
  0
LINE
  8
TF
  6
CONTINUOUS
 62
    4
 10
350.00953
 20
125.4687
 11
350.52718
 21
127.40054
  0
LINE
  8
TF
  6
CONTINUOUS
 62
    4
 10
350.00953
 20
134.29311
 11
349.49189
 21
132.36126
  0
LINE
  8
TF
  6
CONTINUOUS
 62
    4
 10
350.00953
 20
134.29311
 11
350.52718
 21
132.36126
  0
LINE
  8
17DEG_15
  6
CONTINUOUS
 62
    5
 10
416.06607
 20
158.57931
 11
411.06615
 21
158.57931
  0
LINE
  8
BUL
  6
CONTINUOUS
 62
    7
 10
263.21267
 20
243.46873
 11
197.06901
 21
243.46873
  0
LINE
  8
BUL
  6
CONTINUOUS
 62
    7
 10
277.06907
 20
238.46873
 11
197.06901
 21
238.46873
  0
LINE
  8
FEEDTHRO
  6
CONTINUOUS
 62
    5
 10
184.14084
 20
244.96873
 11
197.06901
 21
244.96873
  0
LINE
  8
FEEDTHRO
  6
CONTINUOUS
 62
    5
 10
197.06901
 20
244.96873
 11
197.06901
 21
237.50466
  0
LINE
  8
FEEDTHRO
  6
CONTINUOUS
 62
    5
 10
336.06614
 20
164.71872
 11
336.06614
 21
157.25462
  0
LINE
  8
BUL
  6
CONTINUOUS
 62
    7
 10
401.34368
 20
163.21871
 11
336.06614
 21
163.21871
  0
LINE
  8
BUL
  6
CONTINUOUS
 62
    7
 10
416.06607
 20
158.21872
 11
336.06614
 21
158.21872
  0
LINE
  8
FEEDTHRO
  6
CONTINUOUS
 62
    5
 10
323.13791
 20
164.71872
 11
336.06614
 21
164.71872
  0
LINE
  8
BUL
  6
CONTINUOUS
 62
    7
 10
113.03826
 20
290.96868
 11
121.03826
 21
290.96868
  0
LINE
  8
CATHODE_
  6
CONTINUOUS
 62
    7
 10
103.12669
 20
285.96873
 11
23.832985
 21
285.96873
  0
LINE
  8
BUL
  6
CONTINUOUS
 62
    7
 10
81.038262
 20
295.96869
 11
81.038262
 21
285.96873
  0
LINE
  8
TF
  6
CONTINUOUS
 62
    7
 10
113.03826
 20
290.96868
 11
113.03826
 21
280.24628
  0
LINE
  8
CATHODE_
  6
CONTINUOUS
 62
    7
 10
103.12669
 20
285.96873
 11
113.03826
 21
280.24628
  0
LINE
  8
DIMENSIO
  6
CENTER1
 62
    3
 10
86.03826
 20
303.26726
 11
86.03826
 21
281.24137
  0
LINE
  8
DIMENSIO
  6
CENTER1
 62
    3
 10
116.03825
 20
303.26726
 11
116.03825
 21
287.00894
  0
LINE
  8
FEEDTHRO
  6
CONTINUOUS
 62
    7
 10
101.71656
 20
286.20552
 11
365.39851
 21
133.9687
  0
LINE
  8
ADD_LINE
  6
DOT
 62
    7
 10
358.83665
 20
134.96869
 11
365.83664
 21
134.96869
  0
LINE
  8
ADD_LINE
  6
DOT
 62
    7
 10
363.66646
 20
134.96869
 11
363.66646
 21
3.1721417
  0
LINE
  8
ADD_LINE
  6
DOT
 62
    7
 10
103.12669
 20
285.96873
 11
102.65608
 21
285.15361
  0
LINE
  8
ADD_LINE
  6
DOT
 62
    7
 10
103.24275
 20
285.90173
 11
102.77213
 21
285.08661
  0
LINE
  8
ADD_LINE
  6
DOT
 62
    7
 10
102.99275
 20
285.46872
 11
102.99275
 21
2.7718141
  0
LINE
  8
DIMENSIO
  6
CENTER1
 62
    3
 10
96.038265
 20
303.26726
 11
96.038265
 21
281.24137
  0
LINE
  8
DIMENSIO
  6
CONTINUOUS
 62
    4
 10
71.057085
 20
285.96873
 11
71.057085
 21
295.96869
  0
LINE
  8
DIMENSIO
  6
CONTINUOUS
 62
    4
 10
81.038262
 20
285.96873
 11
69.657086
 21
285.96873
  0
LINE
  8
DIMENSIO
  6
CONTINUOUS
 62
    4
 10
81.038262
 20
295.96869
 11
69.657086
 21
295.96869
  0
LINE
  8
DIMENSIO
  6
CONTINUOUS
 62
    4
 10
71.057085
 20
285.96873
 11
70.539442
 21
287.90058
  0
LINE
  8
DIMENSIO
  6
CONTINUOUS
 62
    4
 10
71.057085
 20
285.96873
 11
71.574723
 21
287.90058
  0
LINE
  8
DIMENSIO
  6
CONTINUOUS
 62
    4
 10
71.057085
 20
295.96869
 11
70.539442
 21
294.03682
  0
LINE
  8
DIMENSIO
  6
CONTINUOUS
 62
    4
 10
71.057085
 20
295.96869
 11
71.574723
 21
294.03682
  0
LINE
  8
DIMENSIO
  6
CONTINUOUS
 62
    4
 10
81.038262
 20
311.22139
 11
86.03826
 21
311.22139
  0
LINE
  8
DIMENSIO
  6
CONTINUOUS
 62
    4
 10
81.038262
 20
295.96869
 11
81.038262
 21
312.6214
  0
LINE
  8
DIMENSIO
  6
CONTINUOUS
 62
    4
 10
86.03826
 20
295.96869
 11
86.03826
 21
312.6214
  0
LINE
  8
DIMENSIO
  6
CONTINUOUS
 62
    4
 10
81.038262
 20
311.22139
 11
82.970112
 21
311.73904
  0
LINE
  8
DIMENSIO
  6
CONTINUOUS
 62
    4
 10
81.038262
 20
311.22139
 11
82.970112
 21
310.70375
  0
LINE
  8
DIMENSIO
  6
CONTINUOUS
 62
    4
 10
86.03826
 20
311.22139
 11
84.106411
 21
311.73904
  0
LINE
  8
DIMENSIO
  6
CONTINUOUS
 62
    4
 10
86.03826
 20
311.22139
 11
84.106411
 21
310.70375
  0
LINE
  8
DIMENSIO
  6
CONTINUOUS
 62
    4
 10
86.03826
 20
311.22139
 11
96.038265
 21
311.22139
  0
LINE
  8
DIMENSIO
  6
CONTINUOUS
 62
    4
 10
96.038265
 20
295.96869
 11
96.038265
 21
312.6214
  0
LINE
  8
DIMENSIO
  6
CONTINUOUS
 62
    4
 10
86.03826
 20
311.22139
 11
87.97011
 21
311.73904
  0
LINE
  8
DIMENSIO
  6
CONTINUOUS
 62
    4
 10
86.03826
 20
311.22139
 11
87.97011
 21
310.70375
  0
LINE
  8
DIMENSIO
  6
CONTINUOUS
 62
    4
 10
96.038265
 20
311.22139
 11
94.106415
 21
311.73904
  0
LINE
  8
DIMENSIO
  6
CONTINUOUS
 62
    4
 10
96.038265
 20
311.22139
 11
94.106415
 21
310.70375
  0
LINE
  8
DIMENSIO
  6
CONTINUOUS
 62
    4
 10
96.038265
 20
311.22139
 11
116.03825
 21
311.22139
  0
LINE
  8
DIMENSIO
  6
CONTINUOUS
 62
    4
 10
116.03825
 20
295.96869
 11
116.03825
 21
312.6214
  0
LINE
  8
DIMENSIO
  6
CONTINUOUS
 62
    4
 10
96.038265
 20
311.22139
 11
97.970115
 21
311.73904
  0
LINE
  8
DIMENSIO
  6
CONTINUOUS
 62
    4
 10
96.038265
 20
311.22139
 11
97.970115
 21
310.70375
  0
LINE
  8
DIMENSIO
  6
CONTINUOUS
 62
    4
 10
116.03825
 20
311.22139
 11
114.10639
 21
311.73904
  0
LINE
  8
DIMENSIO
  6
CONTINUOUS
 62
    4
 10
116.03825
 20
311.22139
 11
114.10639
 21
310.70375
  0
LINE
  8
DIMENSIO
  6
CONTINUOUS
 62
    4
 10
116.03825
 20
311.22139
 11
121.03826
 21
311.22139
  0
LINE
  8
DIMENSIO
  6
CONTINUOUS
 62
    4
 10
121.03826
 20
295.96869
 11
121.03826
 21
312.6214
  0
LINE
  8
DIMENSIO
  6
CONTINUOUS
 62
    4
 10
116.03825
 20
311.22139
 11
117.97011
 21
311.73904
  0
LINE
  8
DIMENSIO
  6
CONTINUOUS
 62
    4
 10
116.03825
 20
311.22139
 11
117.97011
 21
310.70375
  0
LINE
  8
DIMENSIO
  6
CONTINUOUS
 62
    4
 10
121.03826
 20
311.22139
 11
119.1064
 21
311.73904
  0
LINE
  8
DIMENSIO
  6
CONTINUOUS
 62
    4
 10
121.03826
 20
311.22139
 11
119.1064
 21
310.70375
  0
LINE
  8
DIMENSIO
  6
CONTINUOUS
 62
    4
 10
81.038262
 20
260.87762
 11
103.12669
 21
260.87762
  0
LINE
  8
DIMENSIO
  6
CONTINUOUS
 62
    4
 10
81.038262
 20
285.96873
 11
81.038262
 21
259.47761
  0
LINE
  8
DIMENSIO
  6
CONTINUOUS
 62
    4
 10
103.12669
 20
285.96873
 11
103.12669
 21
259.47761
  0
LINE
  8
DIMENSIO
  6
CONTINUOUS
 62
    4
 10
81.038262
 20
260.87762
 11
82.970112
 21
261.39527
  0
LINE
  8
DIMENSIO
  6
CONTINUOUS
 62
    4
 10
81.038262
 20
260.87762
 11
82.970112
 21
260.35997
  0
LINE
  8
DIMENSIO
  6
CONTINUOUS
 62
    4
 10
103.12669
 20
260.87762
 11
101.19484
 21
261.39527
  0
LINE
  8
DIMENSIO
  6
CONTINUOUS
 62
    4
 10
103.12669
 20
260.87762
 11
101.19484
 21
260.35997
  0
LINE
  8
DIMENSIO
  6
CONTINUOUS
 62
    4
 10
103.12669
 20
260.87762
 11
113.03826
 21
260.87762
  0
LINE
  8
DIMENSIO
  6
CONTINUOUS
 62
    4
 10
113.03826
 20
285.96873
 11
113.03826
 21
259.47761
  0
LINE
  8
DIMENSIO
  6
CONTINUOUS
 62
    4
 10
103.12669
 20
260.87762
 11
105.05854
 21
261.39527
  0
LINE
  8
DIMENSIO
  6
CONTINUOUS
 62
    4
 10
103.12669
 20
260.87762
 11
105.05854
 21
260.35997
  0
LINE
  8
DIMENSIO
  6
CONTINUOUS
 62
    4
 10
113.03826
 20
260.87762
 11
111.10641
 21
261.39527
  0
LINE
  8
DIMENSIO
  6
CONTINUOUS
 62
    4
 10
113.03826
 20
260.87762
 11
111.10641
 21
260.35997
  0
LINE
  8
DIMENSIO
  6
CONTINUOUS
 62
    4
 10
113.03826
 20
260.87762
 11
116.03825
 21
260.87762
  0
LINE
  8
DIMENSIO
  6
CONTINUOUS
 62
    4
 10
116.03825
 20
285.96873
 11
116.03825
 21
259.47761
  0
LINE
  8
DIMENSIO
  6
CONTINUOUS
 62
    4
 10
113.03826
 20
260.87762
 11
114.97011
 21
261.39527
  0
LINE
  8
DIMENSIO
  6
CONTINUOUS
 62
    4
 10
113.03826
 20
260.87762
 11
114.97011
 21
260.35997
  0
LINE
  8
DIMENSIO
  6
CONTINUOUS
 62
    4
 10
116.03825
 20
260.87762
 11
114.10639
 21
261.39527
  0
LINE
  8
DIMENSIO
  6
CONTINUOUS
 62
    4
 10
116.03825
 20
260.87762
 11
114.10639
 21
260.35997
  0
LINE
  8
DIMENSIO
  6
CONTINUOUS
 62
    4
 10
129.08287
 20
290.96868
 11
129.08287
 21
295.96869
  0
LINE
  8
DIMENSIO
  6
CONTINUOUS
 62
    4
 10
121.03826
 20
290.96868
 11
130.48287
 21
290.96868
  0
LINE
  8
DIMENSIO
  6
CONTINUOUS
 62
    4
 10
121.03826
 20
295.96869
 11
130.48287
 21
295.96869
  0
LINE
  8
DIMENSIO
  6
CONTINUOUS
 62
    4
 10
129.08287
 20
290.96868
 11
128.56523
 21
292.90055
  0
LINE
  8
DIMENSIO
  6
CONTINUOUS
 62
    4
 10
129.08287
 20
290.96868
 11
129.60051
 21
292.90055
  0
LINE
  8
DIMENSIO
  6
CONTINUOUS
 62
    4
 10
129.08287
 20
295.96869
 11
128.56523
 21
294.03682
  0
LINE
  8
DIMENSIO
  6
CONTINUOUS
 62
    4
 10
129.08287
 20
295.96869
 11
129.60051
 21
294.03682
  0
LINE
  8
ADD_LINE
  6
DOT
 62
    3
 10
104.7118
 20
281.39342
 11
112.22177
 21
294.40112
  0
LINE
  8
DIMENSIO
  6
CENTER1
 62
    3
 10
106.36201
 20
282.68271
 11
112.62212
 21
293.52551
  0
LINE
  8
DIMENSIO
  6
CONTINUOUS
 62
    4
 10
108.8663
 20
287.02024
 11
114.92848
 21
283.52023
  0
LINE
  8
DIMENSIO
  6
CONTINUOUS
 62
    4
 10
106.97608
 20
283.7463
 11
109.5663
 21
288.23268
  0
LINE
  8
DIMENSIO
  6
CONTINUOUS
 62
    4
 10
113.03826
 20
280.24628
 11
115.62849
 21
284.73269
  0
LINE
  8
DIMENSIO
  6
CONTINUOUS
 62
    4
 10
108.8663
 20
287.02024
 11
110.79815
 21
286.5026
  0
LINE
  8
DIMENSIO
  6
CONTINUOUS
 62
    4
 10
108.8663
 20
287.02024
 11
110.28052
 21
285.60604
  0
LINE
  8
DIMENSIO
  6
CONTINUOUS
 62
    4
 10
114.92848
 20
283.52023
 11
113.51428
 21
284.93445
  0
LINE
  8
DIMENSIO
  6
CONTINUOUS
 62
    4
 10
114.92848
 20
283.52023
 11
112.99662
 21
284.03788
  0
LINE
  8
DIMENSIO
  6
CENTER1
 62
    3
 10
375.63061
 20
128.63857
 11
380.69761
 21
137.41494
  0
LINE
  8
DIMENSIO
  6
CENTER1
 62
    3
 10
358.31008
 20
138.63852
 11
363.37709
 21
147.4149
  0
LINE
  8
DIMENSIO
  6
CENTER1
 62
    3
 10
340.98956
 20
148.63847
 11
346.05656
 21
157.41486
  0
LINE
  8
DIMENSIO
  6
CENTER1
 62
    3
 10
311.76983
 20
165.50842
 11
316.83684
 21
174.28479
  0
LINE
  8
DIMENSIO
  6
CENTER1
 62
    3
 10
294.44931
 20
175.50838
 11
299.51631
 21
184.28475
  0
LINE
  8
DIMENSIO
  6
CENTER1
 62
    3
 10
281.4589
 20
183.00834
 11
286.52592
 21
191.78472
  0
LINE
  8
ADD_LINE
  6
DOT
 62
    3
 10
363.66646
 20
134.96869
 11
366.41648
 21
139.73185
  0
LINE
  8
DIMENSIO
  6
CENTER1
 62
    3
 10
350.67608
 20
142.46867
 11
353.42607
 21
147.23183
  0
LINE
  8
DIMENSIO
  6
CENTER1
 62
    3
 10
272.73368
 20
187.46848
 11
275.48368
 21
192.23164
  0
LINE
  8
DIMENSIO
  6
CENTER1
 62
    3
 10
194.7913
 20
232.46832
 11
197.5413
 21
237.23148
  0
LINE
  8
DIMENSIO
  6
CONTINUOUS
 62
    4
 10
363.91646
 20
135.40171
 11
345.91976
 21
104.23049
  0
LINE
  8
DIMENSIO
  6
CONTINUOUS
 62
    4
 10
350.92609
 20
142.90172
 11
332.92935
 21
111.73049
  0
LINE
  8
DIMENSIO
  6
CONTINUOUS
 62
    4
 10
112.76912
 20
280.4017
 11
94.640764
 21
249.00248
  0
LINE
  8
DIMENSIO
  6
CONTINUOUS
 62
    4
 10
195.04154
 20
232.90168
 11
176.91317
 21
201.50245
  0
LINE
  8
DIMENSIO
  6
CONTINUOUS
 62
    4
 10
95.340761
 20
250.21491
 11
97.272611
 21
249.69726
  0
LINE
  8
DIMENSIO
  6
CONTINUOUS
 62
    4
 10
95.340761
 20
250.21491
 11
96.754982
 21
248.8007
  0
LINE
  8
DIMENSIO
  6
CONTINUOUS
 62
    4
 10
177.61317
 20
202.7149
 11
176.19897
 21
204.12912
  0
LINE
  8
DIMENSIO
  6
CONTINUOUS
 62
    4
 10
177.61317
 20
202.7149
 11
175.68132
 21
203.23255
  0
LINE
  8
DIMENSIO
  6
CONTINUOUS
 62
    4
 10
177.61317
 20
202.7149
 11
255.55545
 21
157.71491
  0
LINE
  8
DIMENSIO
  6
CONTINUOUS
 62
    4
 10
272.98381
 20
187.9017
 11
254.85546
 21
156.50247
  0
LINE
  8
DIMENSIO
  6
CONTINUOUS
 62
    4
 10
177.61317
 20
202.7149
 11
179.54502
 21
202.19727
  0
LINE
  8
DIMENSIO
  6
CONTINUOUS
 62
    4
 10
177.61317
 20
202.7149
 11
179.02738
 21
201.3007
  0
LINE
  8
DIMENSIO
  6
CONTINUOUS
 62
    4
 10
255.55545
 20
157.71491
 11
254.14125
 21
159.12911
  0
LINE
  8
DIMENSIO
  6
CONTINUOUS
 62
    4
 10
255.55545
 20
157.71491
 11
253.6236
 21
158.23254
  0
LINE
  8
DIMENSIO
  6
CONTINUOUS
 62
    4
 10
255.55545
 20
157.71489
 11
333.49771
 21
112.71493
  0
LINE
  8
DIMENSIO
  6
CONTINUOUS
 62
    4
 10
350.92605
 20
142.90172
 11
332.7977
 21
111.50248
  0
LINE
  8
DIMENSIO
  6
CONTINUOUS
 62
    4
 10
255.55545
 20
157.71489
 11
257.4873
 21
157.19726
  0
LINE
  8
DIMENSIO
  6
CONTINUOUS
 62
    4
 10
255.55545
 20
157.71489
 11
256.96965
 21
156.30069
  0
LINE
  8
DIMENSIO
  6
CONTINUOUS
 62
    4
 10
333.49771
 20
112.71493
 11
332.08349
 21
114.12913
  0
LINE
  8
DIMENSIO
  6
CONTINUOUS
 62
    4
 10
333.49771
 20
112.71493
 11
331.56584
 21
113.23256
  0
LINE
  8
DIMENSIO
  6
CONTINUOUS
 62
    4
 10
333.49771
 20
112.71491
 11
346.48819
 21
105.21487
  0
LINE
  8
DIMENSIO
  6
CONTINUOUS
 62
    4
 10
363.91653
 20
135.40166
 11
345.78818
 21
104.00242
  0
LINE
  8
DIMENSIO
  6
CONTINUOUS
 62
    4
 10
333.49771
 20
112.71491
 11
335.42954
 21
112.19728
  0
LINE
  8
DIMENSIO
  6
CONTINUOUS
 62
    4
 10
333.49771
 20
112.71491
 11
334.91189
 21
111.3007
  0
LINE
  8
DIMENSIO
  6
CONTINUOUS
 62
    4
 10
346.48819
 20
105.21487
 11
345.07397
 21
106.62908
  0
LINE
  8
DIMENSIO
  6
CONTINUOUS
 62
    4
 10
346.48819
 20
105.21487
 11
344.55632
 21
105.7325
  0
LINE
  8
DIMENSIO
  6
CONTINUOUS
 62
    4
 10
104.51176
 20
288.09972
 11
108.24509
 21
285.94428
  0
LINE
  8
DIMENSIO
  6
CONTINUOUS
 62
    4
 10
103.24275
 20
285.90173
 11
105.21176
 21
289.31214
  0
LINE
  8
DIMENSIO
  6
CONTINUOUS
 62
    4
 10
106.97608
 20
283.74626
 11
108.94509
 21
287.15671
  0
LINE
  8
DIMENSIO
  6
CONTINUOUS
 62
    4
 10
104.51176
 20
288.09972
 11
106.44361
 21
287.58207
  0
LINE
  8
DIMENSIO
  6
CONTINUOUS
 62
    4
 10
104.51176
 20
288.09972
 11
105.92598
 21
286.68552
  0
LINE
  8
DIMENSIO
  6
CONTINUOUS
 62
    4
 10
108.24509
 20
285.94428
 11
106.83088
 21
287.35849
  0
LINE
  8
DIMENSIO
  6
CONTINUOUS
 62
    4
 10
108.24509
 20
285.94428
 11
106.31324
 21
286.46193
  0
LINE
  8
DIMENSIO
  6
CONTINUOUS
 62
    4
 10
346.48819
 20
105.21486
 11
362.53244
 21
95.951696
  0
LINE
  8
DIMENSIO
  6
CONTINUOUS
 62
    4
 10
363.5298
 20
134.73182
 11
345.78818
 21
104.00243
  0
LINE
  8
DIMENSIO
  6
CONTINUOUS
 62
    4
 10
379.57406
 20
125.46864
 11
361.83247
 21
94.739266
  0
LINE
  8
DIMENSIO
  6
CONTINUOUS
 62
    4
 10
346.48819
 20
105.21486
 11
348.42002
 21
104.69723
  0
LINE
  8
DIMENSIO
  6
CONTINUOUS
 62
    4
 10
346.48819
 20
105.21486
 11
347.90237
 21
103.80065
  0
LINE
  8
DIMENSIO
  6
CONTINUOUS
 62
    4
 10
362.53244
 20
95.951696
 11
361.11826
 21
97.365908
  0
LINE
  8
DIMENSIO
  6
CONTINUOUS
 62
    4
 10
362.53244
 20
95.951696
 11
360.60061
 21
96.469326
  0
LINE
  8
DIMENSIO
  6
CENTER1
 62
    3
 10
112.51879
 20
279.96814
 11
115.26878
 21
284.7313
  0
LINE
  8
DIMENSIO
  6
CONTINUOUS
 62
    4
 10
95.340752
 20
250.21489
 11
177.61317
 21
202.7149
  0
LINE
  8
TAPER___
  6
PHANTOM2
 62
    3
 10
479.32664
 20
123.71226
 11
756.07962
 21
123.71226
  0
LINE
  8
INNER_RI
  6
CONTINUOUS
 62
    7
 10
486.32667
 20
87.968693
 11
756.07962
 21
87.968693
  0
LINE
  8
FEEDTHRO
  6
CONTINUOUS
 62
    6
 10
93.038261
 20
281.96871
 11
93.038261
 21
284.96873
  0
LINE
  8
FEEDTHRO
  6
CONTINUOUS
 62
    6
 10
93.038261
 20
284.96873
 11
99.038261
 21
284.96873
  0
LINE
  8
FEEDTHRO
  6
CONTINUOUS
 62
    6
 10
99.038261
 20
284.96873
 11
99.038261
 21
281.96871
  0
LINE
  8
FEEDTHRO
  6
CONTINUOUS
 62
    6
 10
99.038261
 20
281.96871
 11
93.038261
 21
281.96871
  0
LINE
  8
FEEDTHRO
  6
CONTINUOUS
 62
    6
 10
108.42071
 20
278.87007
 11
109.92071
 21
281.46815
  0
LINE
  8
FEEDTHRO
  6
CONTINUOUS
 62
    6
 10
109.92071
 20
281.46815
 11
115.11687
 21
278.46813
  0
LINE
  8
FEEDTHRO
  6
CONTINUOUS
 62
    6
 10
115.11687
 20
278.46813
 11
113.61687
 21
275.87005
  0
LINE
  8
FEEDTHRO
  6
CONTINUOUS
 62
    6
 10
113.61687
 20
275.87005
 11
108.42071
 21
278.87007
  0
LINE
  8
FEEDTHRO
  6
CONTINUOUS
 62
    6
 10
190.69322
 20
231.37024
 11
192.19322
 21
233.96831
  0
LINE
  8
FEEDTHRO
  6
CONTINUOUS
 62
    6
 10
192.19322
 20
233.96831
 11
197.38939
 21
230.9683
  0
LINE
  8
FEEDTHRO
  6
CONTINUOUS
 62
    6
 10
197.38939
 20
230.9683
 11
195.88938
 21
228.37022
  0
LINE
  8
FEEDTHRO
  6
CONTINUOUS
 62
    6
 10
195.88938
 20
228.37022
 11
190.69322
 21
231.37024
  0
LINE
  8
FEEDTHRO
  6
CONTINUOUS
 62
    6
 10
268.63561
 20
186.37041
 11
270.13562
 21
188.96849
  0
LINE
  8
FEEDTHRO
  6
CONTINUOUS
 62
    6
 10
270.13562
 20
188.96849
 11
275.33177
 21
185.96849
  0
LINE
  8
FEEDTHRO
  6
CONTINUOUS
 62
    6
 10
275.33177
 20
185.96849
 11
273.83176
 21
183.37042
  0
LINE
  8
FEEDTHRO
  6
CONTINUOUS
 62
    6
 10
273.83176
 20
183.37042
 11
268.63561
 21
186.37041
  0
LINE
  8
FEEDTHRO
  6
CONTINUOUS
 62
    6
 10
346.57799
 20
141.37059
 11
348.07798
 21
143.96867
  0
LINE
  8
FEEDTHRO
  6
CONTINUOUS
 62
    6
 10
348.07798
 20
143.96867
 11
353.27415
 21
140.96866
  0
LINE
  8
FEEDTHRO
  6
CONTINUOUS
 62
    6
 10
353.27415
 20
140.96866
 11
351.77416
 21
138.3706
  0
LINE
  8
FEEDTHRO
  6
CONTINUOUS
 62
    6
 10
351.77416
 20
138.3706
 11
346.57799
 21
141.37059
  0
LINE
  8
CATH_PAR
  6
CONTINUOUS
 62
    7
 10
104.85879
 20
284.96873
 11
23.832983
 21
284.96873
  0
LINE
  8
ADD_LINE
  6
DOT
 62
    7
 10
419.39851
 20
381.72794
 11
483.17956
 21
381.72794
  0
LINE
  8
ADD_LINE
  6
DOT
 62
    7
 10
419.39851
 20
371.72792
 11
483.17956
 21
371.72792
  0
LINE
  8
ADD_LINE
  6
DOT
 62
    7
 10
419.39851
 20
361.72794
 11
483.17956
 21
361.72794
  0
LINE
  8
ADD_LINE
  6
DOT
 62
    7
 10
419.39851
 20
351.72793
 11
483.17956
 21
351.72793
  0
LINE
  8
ADD_LINE
  6
DOT
 62
    7
 10
419.39851
 20
341.72792
 11
483.17956
 21
341.72792
  0
LINE
  8
ADD_LINE
  6
DOT
 62
    7
 10
419.39851
 20
331.7279
 11
483.17956
 21
331.7279
  0
LINE
  8
ADD_LINE
  6
DOT
 62
    7
 10
427.26193
 20
400.07592
 11
427.26193
 21
328.35431
  0
ARC
  8
17DEG_15
  6
CONTINUOUS
 62
    5
 10
217.04346
 20
267.76878
 40
0.4
 50
90
 51
180
  0
ARC
  8
17DEG_15
  6
CONTINUOUS
 62
    5
 10
217.04346
 20
270.16879
 40
0.4
 50
180
 51
270
  0
ARC
  8
17DEG_15
  6
CONTINUOUS
 62
    5
 10
236.59345
 20
268.21874
 40
0.05
 50
270
 51
0
  0
ARC
  8
17DEG_15
  6
CONTINUOUS
 62
    5
 10
236.59345
 20
269.71874
 40
0.05
 50
0
 51
90
  0
ARC
  8
17DEG_15
  6
CONTINUOUS
 62
    5
 10
244.75625
 20
251.88438
 40
0.4
 50
90
 51
180
  0
ARC
  8
17DEG_15
  6
CONTINUOUS
 62
    5
 10
244.75625
 20
254.28434
 40
0.4
 50
180
 51
270
  0
ARC
  8
17DEG_15
  6
CONTINUOUS
 62
    5
 10
264.30623
 20
252.33428
 40
0.05
 50
270
 51
0
  0
ARC
  8
17DEG_15
  6
CONTINUOUS
 62
    5
 10
264.30623
 20
253.8343
 40
0.05
 50
0
 51
90
  0
ARC
  8
17DEG_15
  6
CONTINUOUS
 62
    5
 10
260.14376
 20
260.21866
 40
0.05
 50
270
 51
0
  0
ARC
  8
17DEG_15
  6
CONTINUOUS
 62
    5
 10
230.89984
 20
262.16882
 40
0.4
 50
180
 51
270
  0
ARC
  8
17DEG_15
  6
CONTINUOUS
 62
    5
 10
230.89984
 20
259.76875
 40
0.4
 50
90
 51
180
  0
ARC
  8
17DEG_15
  6
CONTINUOUS
 62
    5
 10
260.14376
 20
261.71869
 40
0.05
 50
0
 51
90
  0
ARC
  8
17DEG_15
  6
CONTINUOUS
 62
    5
 10
232.43092
 20
276.21867
 40
0.05
 50
270
 51
0
  0
ARC
  8
17DEG_15
  6
CONTINUOUS
 62
    5
 10
203.18699
 20
278.16877
 40
0.4
 50
180
 51
270
  0
ARC
  8
17DEG_15
  6
CONTINUOUS
 62
    5
 10
203.18699
 20
275.7687
 40
0.4
 50
90
 51
180
  0
ARC
  8
17DEG_15
  6
CONTINUOUS
 62
    5
 10
232.43092
 20
277.71871
 40
0.05
 50
0
 51
90
  0
ARC
  8
17DEG_15
  6
CONTINUOUS
 62
    5
 10
487.97059
 20
97.218727
 40
0.05
 50
270
 51
0
  0
ARC
  8
17DEG_15
  6
CONTINUOUS
 62
    5
 10
458.72683
 20
99.168722
 40
0.4
 50
180
 51
270
  0
ARC
  8
17DEG_15
  6
CONTINUOUS
 62
    5
 10
458.72683
 20
96.768761
 40
0.4
 50
90
 51
180
  0
ARC
  8
17DEG_15
  6
CONTINUOUS
 62
    5
 10
487.97059
 20
98.718703
 40
0.05
 50
0
 51
90
  0
ARC
  8
17DEG_15
  6
CONTINUOUS
 62
    5
 10
487.97059
 20
117.71871
 40
0.05
 50
270
 51
0
  0
ARC
  8
17DEG_15
  6
CONTINUOUS
 62
    5
 10
458.72683
 20
119.66875
 40
0.4
 50
180
 51
270
  0
ARC
  8
17DEG_15
  6
CONTINUOUS
 62
    5
 10
458.72683
 20
117.26879
 40
0.4
 50
90
 51
180
  0
ARC
  8
17DEG_15
  6
CONTINUOUS
 62
    5
 10
487.97059
 20
119.21868
 40
0.05
 50
0
 51
90
  0
ARC
  8
17DEG_15
  6
CONTINUOUS
 62
    5
 10
189.33062
 20
283.76878
 40
0.4
 50
90
 51
180
  0
ARC
  8
17DEG_15
  6
CONTINUOUS
 62
    5
 10
189.33062
 20
286.16874
 40
0.4
 50
180
 51
270
  0
ARC
  8
17DEG_15
  6
CONTINUOUS
 62
    5
 10
208.88054
 20
284.21871
 40
0.05
 50
270
 51
0
  0
ARC
  8
17DEG_15
  6
CONTINUOUS
 62
    5
 10
208.88054
 20
285.71874
 40
0.05
 50
0
 51
90
  0
ARC
  8
17DEG_15
  6
CONTINUOUS
 62
    5
 10
200.68225
 20
292.21874
 40
0.05
 50
270
 51
0
  0
ARC
  8
17DEG_15
  6
CONTINUOUS
 62
    5
 10
171.43831
 20
294.16879
 40
0.4
 50
180
 51
270
  0
ARC
  8
17DEG_15
  6
CONTINUOUS
 62
    5
 10
171.43831
 20
291.76876
 40
0.4
 50
90
 51
180
  0
ARC
  8
17DEG_15
  6
CONTINUOUS
 62
    5
 10
200.68225
 20
293.71865
 40
0.05
 50
0
 51
90
  0
ARC
  8
17DEG_15
  6
CONTINUOUS
 62
    5
 10
341.11704
 20
213.71868
 40
0.05
 50
270
 51
0
  0
ARC
  8
17DEG_15
  6
CONTINUOUS
 62
    5
 10
311.87321
 20
215.66867
 40
0.4
 50
180
 51
270
  0
ARC
  8
17DEG_15
  6
CONTINUOUS
 62
    5
 10
311.87321
 20
213.26871
 40
0.4
 50
90
 51
180
  0
ARC
  8
17DEG_15
  6
CONTINUOUS
 62
    5
 10
341.11704
 20
215.21871
 40
0.05
 50
0
 51
90
  0
ARC
  8
17DEG_15
  6
CONTINUOUS
 62
    5
 10
367.53096
 20
198.21867
 40
0.05
 50
270
 51
0
  0
ARC
  8
17DEG_15
  6
CONTINUOUS
 62
    5
 10
338.28706
 20
200.16877
 40
0.4
 50
180
 51
270
  0
ARC
  8
17DEG_15
  6
CONTINUOUS
 62
    5
 10
338.28706
 20
197.76881
 40
0.4
 50
90
 51
180
  0
ARC
  8
17DEG_15
  6
CONTINUOUS
 62
    5
 10
367.53096
 20
199.7187
 40
0.05
 50
0
 51
90
  0
ARC
  8
17DEG_15
  6
CONTINUOUS
 62
    5
 10
438.74581
 20
139.7688
 40
0.4
 50
90
 51
180
  0
ARC
  8
17DEG_15
  6
CONTINUOUS
 62
    5
 10
438.74581
 20
142.16876
 40
0.4
 50
180
 51
270
  0
ARC
  8
17DEG_15
  6
CONTINUOUS
 62
    5
 10
458.29594
 20
140.21871
 40
0.05
 50
270
 51
0
  0
ARC
  8
17DEG_15
  6
CONTINUOUS
 62
    5
 10
458.29594
 20
141.71869
 40
0.05
 50
0
 51
90
  0
ARC
  8
17DEG_15
  6
CONTINUOUS
 62
    5
 10
481.84621
 20
132.21867
 40
0.05
 50
270
 51
0
  0
ARC
  8
17DEG_15
  6
CONTINUOUS
 62
    5
 10
452.60238
 20
134.16873
 40
0.4
 50
180
 51
270
  0
ARC
  8
17DEG_15
  6
CONTINUOUS
 62
    5
 10
452.60238
 20
131.76877
 40
0.4
 50
90
 51
180
  0
ARC
  8
17DEG_15
  6
CONTINUOUS
 62
    5
 10
481.84621
 20
133.71871
 40
0.05
 50
0
 51
90
  0
ARC
  8
17DEG_15
  6
CONTINUOUS
 62
    5
 10
487.97056
 20
93.718731
 40
0.05
 50
0
 51
90
  0
ARC
  8
17DEG_15
  6
CONTINUOUS
 62
    5
 10
487.97056
 20
92.218756
 40
0.05
 50
270
 51
0
  0
ARC
  8
17DEG_15
  6
CONTINUOUS
 62
    5
 10
458.72662
 20
91.768789
 40
0.4
 50
90
 51
180
  0
ARC
  8
17DEG_15
  6
CONTINUOUS
 62
    5
 10
458.72662
 20
94.168698
 40
0.4
 50
180
 51
270
  0
ARC
  8
17DEG_15
  6
CONTINUOUS
 62
    5
 10
487.97056
 20
103.71867
 40
0.05
 50
0
 51
90
  0
ARC
  8
17DEG_15
  6
CONTINUOUS
 62
    5
 10
487.97056
 20
102.21869
 40
0.05
 50
270
 51
0
  0
ARC
  8
17DEG_15
  6
CONTINUOUS
 62
    5
 10
458.72662
 20
101.76878
 40
0.4
 50
90
 51
180
  0
ARC
  8
17DEG_15
  6
CONTINUOUS
 62
    5
 10
458.72662
 20
104.16874
 40
0.4
 50
180
 51
270
  0
ARC
  8
17DEG_15
  6
CONTINUOUS
 62
    5
 10
487.97056
 20
114.21872
 40
0.05
 50
0
 51
90
  0
ARC
  8
17DEG_15
  6
CONTINUOUS
 62
    5
 10
487.97056
 20
112.71868
 40
0.05
 50
270
 51
0
  0
ARC
  8
17DEG_15
  6
CONTINUOUS
 62
    5
 10
458.72662
 20
112.26878
 40
0.4
 50
90
 51
180
  0
ARC
  8
17DEG_15
  6
CONTINUOUS
 62
    5
 10
458.72662
 20
114.66874
 40
0.4
 50
180
 51
270
  0
ARC
  8
17DEG_15
  6
CONTINUOUS
 62
    5
 10
394.81066
 20
182.21872
 40
0.05
 50
270
 51
0
  0
ARC
  8
17DEG_15
  6
CONTINUOUS
 62
    5
 10
365.56673
 20
184.16871
 40
0.4
 50
180
 51
270
  0
ARC
  8
17DEG_15
  6
CONTINUOUS
 62
    5
 10
365.56673
 20
181.76875
 40
0.4
 50
90
 51
180
  0
ARC
  8
17DEG_15
  6
CONTINUOUS
 62
    5
 10
394.81066
 20
183.71869
 40
0.05
 50
0
 51
90
  0
ARC
  8
17DEG_15
  6
CONTINUOUS
 62
    5
 10
411.46614
 20
155.37925
 40
0.4
 50
90
 51
180
  0
ARC
  8
17DEG_15
  6
CONTINUOUS
 62
    5
 10
411.46614
 20
157.77932
 40
0.4
 50
180
 51
270
  0
ARC
  8
17DEG_15
  6
CONTINUOUS
 62
    5
 10
431.01617
 20
155.82922
 40
0.05
 50
270
 51
0
  0
ARC
  8
17DEG_15
  6
CONTINUOUS
 62
    5
 10
431.01617
 20
157.3292
 40
0.05
 50
0
 51
90
  0
ARC
  8
17DEG_15
  6
CONTINUOUS
 62
    5
 10
425.98759
 20
163.71875
 40
0.05
 50
270
 51
0
  0
ARC
  8
17DEG_15
  6
CONTINUOUS
 62
    5
 10
396.74365
 20
165.66875
 40
0.4
 50
180
 51
270
  0
ARC
  8
17DEG_15
  6
CONTINUOUS
 62
    5
 10
396.74365
 20
163.26879
 40
0.4
 50
90
 51
180
  0
ARC
  8
17DEG_15
  6
CONTINUOUS
 62
    5
 10
425.98759
 20
165.21878
 40
0.05
 50
0
 51
90
  0
ARC
  8
17DEG_15
  6
CONTINUOUS
 62
    5
 10
454.13349
 20
148.21874
 40
0.05
 50
270
 51
0
  0
ARC
  8
17DEG_15
  6
CONTINUOUS
 62
    5
 10
424.88955
 20
150.16873
 40
0.4
 50
180
 51
270
  0
ARC
  8
17DEG_15
  6
CONTINUOUS
 62
    5
 10
424.88955
 20
147.76877
 40
0.4
 50
90
 51
180
  0
ARC
  8
17DEG_15
  6
CONTINUOUS
 62
    5
 10
454.13349
 20
149.71877
 40
0.05
 50
0
 51
90
  0
CIRCLE
  8
17DEG_15
  6
CONTINUOUS
 62
    7
 10
427.08195
 20
96.384104
 40
4.9999996
  0
ARC
  8
17DEG_15
  6
CONTINUOUS
 62
    5
 10
272.46902
 20
235.89381
 40
0.4
 50
90
 51
180
  0
ARC
  8
17DEG_15
  6
CONTINUOUS
 62
    5
 10
272.46902
 20
238.29372
 40
0.4
 50
180
 51
270
  0
ARC
  8
17DEG_15
  6
CONTINUOUS
 62
    5
 10
292.01911
 20
236.34374
 40
0.05
 50
270
 51
0
  0
ARC
  8
17DEG_15
  6
CONTINUOUS
 62
    5
 10
292.01911
 20
237.84377
 40
0.05
 50
0
 51
90
  0
ARC
  8
17DEG_15
  6
CONTINUOUS
 62
    5
 10
298.88283
 20
220.76875
 40
0.4
 50
90
 51
180
  0
ARC
  8
17DEG_15
  6
CONTINUOUS
 62
    5
 10
298.88283
 20
223.16871
 40
0.4
 50
180
 51
270
  0
ARC
  8
17DEG_15
  6
CONTINUOUS
 62
    5
 10
318.43279
 20
221.21872
 40
0.05
 50
270
 51
0
  0
ARC
  8
17DEG_15
  6
CONTINUOUS
 62
    5
 10
318.43279
 20
222.71876
 40
0.05
 50
0
 51
90
  0
ARC
  8
17DEG_15
  6
CONTINUOUS
 62
    5
 10
324.86355
 20
205.64374
 40
0.4
 50
90
 51
180
  0
ARC
  8
17DEG_15
  6
CONTINUOUS
 62
    5
 10
324.86355
 20
208.04376
 40
0.4
 50
180
 51
270
  0
ARC
  8
17DEG_15
  6
CONTINUOUS
 62
    5
 10
344.41358
 20
206.09371
 40
0.05
 50
270
 51
0
  0
ARC
  8
17DEG_15
  6
CONTINUOUS
 62
    5
 10
344.41358
 20
207.59374
 40
0.05
 50
0
 51
90
  0
ARC
  8
17DEG_15
  6
CONTINUOUS
 62
    5
 10
352.14343
 20
189.89376
 40
0.4
 50
90
 51
180
  0
ARC
  8
17DEG_15
  6
CONTINUOUS
 62
    5
 10
352.14343
 20
192.29372
 40
0.4
 50
180
 51
270
  0
ARC
  8
17DEG_15
  6
CONTINUOUS
 62
    5
 10
371.69342
 20
190.34373
 40
0.05
 50
270
 51
0
  0
ARC
  8
17DEG_15
  6
CONTINUOUS
 62
    5
 10
371.69342
 20
191.8437
 40
0.05
 50
0
 51
90
  0
ARC
  8
17DEG_15
  6
CONTINUOUS
 62
    5
 10
380.28922
 20
172.76874
 40
0.4
 50
90
 51
180
  0
ARC
  8
17DEG_15
  6
CONTINUOUS
 62
    5
 10
380.28922
 20
175.16875
 40
0.4
 50
180
 51
270
  0
ARC
  8
17DEG_15
  6
CONTINUOUS
 62
    5
 10
399.83914
 20
173.2187
 40
0.05
 50
270
 51
0
  0
ARC
  8
17DEG_15
  6
CONTINUOUS
 62
    5
 10
399.83914
 20
174.71873
 40
0.05
 50
0
 51
90
  0
ARC
  8
17DEG_15
  6
CONTINUOUS
 62
    5
 10
315.13636
 20
228.71872
 40
0.05
 50
270
 51
0
  0
ARC
  8
17DEG_15
  6
CONTINUOUS
 62
    5
 10
285.89253
 20
230.66869
 40
0.4
 50
180
 51
270
  0
ARC
  8
17DEG_15
  6
CONTINUOUS
 62
    5
 10
285.89253
 20
228.26873
 40
0.4
 50
90
 51
180
  0
ARC
  8
17DEG_15
  6
CONTINUOUS
 62
    5
 10
315.13636
 20
230.21875
 40
0.05
 50
0
 51
90
  0
ARC
  8
17DEG_15
  6
CONTINUOUS
 62
    5
 10
287.85661
 20
244.21871
 40
0.05
 50
270
 51
0
  0
ARC
  8
17DEG_15
  6
CONTINUOUS
 62
    5
 10
258.61262
 20
246.16869
 40
0.4
 50
180
 51
270
  0
ARC
  8
17DEG_15
  6
CONTINUOUS
 62
    5
 10
258.61262
 20
243.76873
 40
0.4
 50
90
 51
180
  0
ARC
  8
17DEG_15
  6
CONTINUOUS
 62
    5
 10
287.85661
 20
245.71869
 40
0.05
 50
0
 51
90
  0
CIRCLE
  8
17DEG_15
  6
CONTINUOUS
 62
    7
 10
430.74006
 20
116.38419
 40
4.9999996
  0
CIRCLE
  8
17DEG_15
  6
CONTINUOUS
 62
    7
 10
424.61589
 20
135.88419
 40
4.9999996
  0
CIRCLE
  8
17DEG_15
  6
CONTINUOUS
 62
    7
 10
396.90312
 20
151.88414
 40
4.9999996
  0
CIRCLE
  8
17DEG_15
  6
CONTINUOUS
 62
    7
 10
368.75712
 20
167.38415
 40
4.9999996
  0
CIRCLE
  8
17DEG_15
  6
CONTINUOUS
 62
    7
 10
337.5802
 20
185.88412
 40
4.9999996
  0
CIRCLE
  8
17DEG_15
  6
CONTINUOUS
 62
    7
 10
310.30053
 20
201.88417
 40
4.9999996
  0
CIRCLE
  8
17DEG_15
  6
CONTINUOUS
 62
    7
 10
283.8867
 20
217.38418
 40
4.9999996
  0
CIRCLE
  8
17DEG_15
  6
CONTINUOUS
 62
    7
 10
230.62623
 20
247.88418
 40
4.9999996
  0
CIRCLE
  8
17DEG_15
  6
CONTINUOUS
 62
    7
 10
202.91334
 20
263.88413
 40
4.9999996
  0
CIRCLE
  8
17DEG_15
  6
CONTINUOUS
 62
    7
 10
175.20046
 20
279.88419
 40
4.9999996
  0
CIRCLE
  8
17DEG_15
  6
CONTINUOUS
 62
    7
 10
257.906
 20
232.38417
 40
4.9999996
  0
TEXT
  8
CATH_TER
 10
462.32663
 20
41.468709
 40
4
 41
1
 50
90
  1
77
  0
TEXT
  8
CATH_TER
 10
386.7154
 20
42.968706
 40
4
 41
1
 50
90
  1
80
  0
TEXT
  8
INNER_SH
 10
408.58164
 20
63.543554
 40
4
 41
1
 50
0
  1
99.49
  0
TEXT
  8
INNER_SH
 10
405.07989
 20
53.434784
 40
4
 41
1
 50
0
  1
104.49
  0
TEXT
  8
TF
 10
326.98632
 20
66.468703
 40
4
 41
1
 50
90
  1
129
  0
TEXT
  8
TF
 10
334.83882
 20
61.718706
 40
4
 41
1
 50
90
  1
123.5
  0
TEXT
  8
TF
 10
342.25512
 20
60.218704
 40
4
 41
1
 50
90
  1
120.5
  0
TEXT
  8
TF
 10
372.56955
 20
141.64582
 40
4
 41
1
 50
330.00004
  1
16.309
  0
TEXT
  8
TF
 10
133.0967
 20
259.21789
 40
4
 41
1
 50
330.00007
  1
91.34
  0
TEXT
  8
TF
 10
242.1465
 20
196.25798
 40
4
 41
1
 50
329.99998
  1
160.5
  0
TEXT
  8
TF
 10
333.66428
 20
143.42016
 40
4
 41
1
 50
330.00004
  1
52.851
  0
TEXT
  8
TF
 10
349.00955
 20
124.8809
 40
4
 41
1
 50
90
  1
8.824
  0
TEXT
  8
DIMENSIO
 10
70.057088
 20
288.96872
 40
4
 41
1
 50
90
  1
10
  0
TEXT
  8
DIMENSIO
 10
82.538264
 20
312.22141
 40
4
 41
1
 50
0
  1
5
  0
TEXT
  8
DIMENSIO
 10
89.038265
 20
312.22141
 40
4
 41
1
 50
0
  1
10
  0
TEXT
  8
DIMENSIO
 10
104.03825
 20
312.22141
 40
4
 41
1
 50
0
  1
20
  0
TEXT
  8
DIMENSIO
 10
117.53825
 20
312.22141
 40
4
 41
1
 50
0
  1
5
  0
TEXT
  8
DIMENSIO
 10
86.082477
 20
261.87762
 40
4
 41
1
 50
0
  1
22.088
  0
TEXT
  8
DIMENSIO
 10
103.08247
 20
261.87762
 40
4
 41
1
 50
0
  1
9.912
  0
TEXT
  8
DIMENSIO
 10
113.53826
 20
261.87762
 40
4
 41
1
 50
0
  1
3
  0
TEXT
  8
DIMENSIO
 10
128.08287
 20
292.46869
 40
4
 41
1
 50
90
  1
5
  0
TEXT
  8
DIMENSIO
 10
111.53136
 20
286.63628
 40
4
 41
1
 50
329.99945
  1
7
  0
TEXT
  8
DIMENSIO
 10
215.35227
 20
182.08094
 40
4
 41
1
 50
330.00022
  1
90
  0
TEXT
  8
DIMENSIO
 10
293.29451
 20
137.08094
 40
4
 41
1
 50
330.0001
  1
90
  0
TEXT
  8
DIMENSIO
 10
338.76089
 20
110.83091
 40
4
 41
1
 50
329.99989
  1
15
  0
TEXT
  8
DIMENSIO
 10
102.5483
 20
290.38803
 40
4
 41
1
 50
330.00007
  1
4.311
  0
TEXT
  8
DIMENSIO
 10
349.81415
 20
104.44931
 40
4
 41
1
 50
330.00004
  1
18.526
  0
TEXT
  8
DIMENSIO
 10
132.21383
 20
230.08092
 40
4
 41
1
 50
329.99989
  1
95
  0
TEXT
  8
FEEDTHRO
 10
59.050643
 20
5.9687214
 40
6
 41
1
 50
0
  1
Beam line
  0
TEXT
  8
FEEDTHRO
 10
428.26192
 20
382.72795
 40
6
 41
1
 50
0
  1
Side view (150 degree side)
  0
TEXT
  8
FEEDTHRO
 10
428.26192
 20
372.72794
 40
6
 41
1
 50
0
  1
cone shield for inner part
  0
TEXT
  8
FEEDTHRO
 10
428.26192
 20
362.72793
 40
6
 41
1
 50
0
  1
and mount bar for Cathode part terminator
  0
TEXT
  8
FEEDTHRO
 10
13.613899
 20
405.79148
 40
6
 41
1
 50
0
  1
縮尺 1/2.0
  0
TEXT
  8
FEEDTHRO
 10
428.26192
 20
332.72789
 40
6
 41
1
 50
0
  1
98/04/09  名古屋大学Ｎ研　居波
  0
ENDSEC
  0
EOF
